  0
SECTION
  2
HEADER
  9
$ACADVER
  1
AC1021
  9
$ACADMAINTVER
 70
    25
  9
$DWGCODEPAGE
  3
ANSI_1252
  9
$INSBASE
 10
0.0
 20
0.0
 30
0.0
  9
$EXTMIN
 10
1.000000000000000E+20
 20
1.000000000000000E+20
 30
1.000000000000000E+20
  9
$EXTMAX
 10
-1.000000000000000E+20
 20
-1.000000000000000E+20
 30
-1.000000000000000E+20
  9
$LIMMIN
 10
0.0
 20
0.0
  9
$LIMMAX
 10
12.0
 20
9.0
  9
$ORTHOMODE
 70
     0
  9
$REGENMODE
 70
     1
  9
$FILLMODE
 70
     1
  9
$QTEXTMODE
 70
     0
  9
$MIRRTEXT
 70
     1
  9
$LTSCALE
 40
1.0
  9
$ATTMODE
 70
     1
  9
$TEXTSIZE
 40
0.2
  9
$TRACEWID
 40
0.05
  9
$TEXTSTYLE
  7
Standard
  9
$CLAYER
  8
Layer 01
  9
$CELTYPE
  6
ByLayer
  9
$CECOLOR
 62
   256
  9
$CELTSCALE
 40
1.0
  9
$DISPSILH
 70
     0
  9
$DIMSCALE
 40
1.0
  9
$DIMASZ
 40
0.18
  9
$DIMEXO
 40
0.0625
  9
$DIMDLI
 40
0.38
  9
$DIMRND
 40
0.0
  9
$DIMDLE
 40
0.0
  9
$DIMEXE
 40
0.18
  9
$DIMTP
 40
0.0
  9
$DIMTM
 40
0.0
  9
$DIMTXT
 40
0.18
  9
$DIMCEN
 40
0.09
  9
$DIMTSZ
 40
0.0
  9
$DIMTOL
 70
     0
  9
$DIMLIM
 70
     0
  9
$DIMTIH
 70
     1
  9
$DIMTOH
 70
     1
  9
$DIMSE1
 70
     0
  9
$DIMSE2
 70
     0
  9
$DIMTAD
 70
     0
  9
$DIMZIN
 70
     0
  9
$DIMBLK
  1

  9
$DIMASO
 70
     1
  9
$DIMSHO
 70
     1
  9
$DIMPOST
  1

  9
$DIMAPOST
  1

  9
$DIMALT
 70
     0
  9
$DIMALTD
 70
     2
  9
$DIMALTF
 40
25.4
  9
$DIMLFAC
 40
1.0
  9
$DIMTOFL
 70
     0
  9
$DIMTVP
 40
0.0
  9
$DIMTIX
 70
     0
  9
$DIMSOXD
 70
     0
  9
$DIMSAH
 70
     0
  9
$DIMBLK1
  1

  9
$DIMBLK2
  1

  9
$DIMSTYLE
  2
STANDARD_ACAD
  9
$DIMCLRD
 70
     0
  9
$DIMCLRE
 70
     0
  9
$DIMCLRT
 70
     0
  9
$DIMTFAC
 40
1.0
  9
$DIMGAP
 40
0.09
  9
$DIMJUST
 70
     0
  9
$DIMSD1
 70
     0
  9
$DIMSD2
 70
     0
  9
$DIMTOLJ
 70
     1
  9
$DIMTZIN
 70
     0
  9
$DIMALTZ
 70
     0
  9
$DIMALTTZ
 70
     0
  9
$DIMUPT
 70
     0
  9
$DIMDEC
 70
     4
  9
$DIMTDEC
 70
     4
  9
$DIMALTU
 70
     2
  9
$DIMALTTD
 70
     2
  9
$DIMTXSTY
  7
Standard
  9
$DIMAUNIT
 70
     0
  9
$DIMADEC
 70
     0
  9
$DIMALTRND
 40
0.0
  9
$DIMAZIN
 70
     0
  9
$DIMDSEP
 70
    46
  9
$DIMATFIT
 70
     3
  9
$DIMFRAC
 70
     0
  9
$DIMLDRBLK
  1

  9
$DIMLUNIT
 70
     2
  9
$DIMLWD
 70
    -2
  9
$DIMLWE
 70
    -2
  9
$DIMTMOVE
 70
     2
  9
$DIMFXL
 40
1.0
  9
$DIMFXLON
 70
     0
  9
$DIMJOGANG
 40
0.7853981633974483
  9
$DIMTFILL
 70
     0
  9
$DIMTFILLCLR
 70
     0
  9
$DIMARCSYM
 70
     0
  9
$DIMLTYPE
  6

  9
$DIMLTEX1
  6

  9
$DIMLTEX2
  6

  9
$LUNITS
 70
     2
  9
$LUPREC
 70
     3
  9
$SKETCHINC
 40
0.1
  9
$FILLETRAD
 40
0.5
  9
$AUNITS
 70
     0
  9
$AUPREC
 70
     0
  9
$MENU
  1
.
  9
$ELEVATION
 40
0.0
  9
$PELEVATION
 40
0.0
  9
$THICKNESS
 40
0.0
  9
$LIMCHECK
 70
     0
  9
$CHAMFERA
 40
0.0
  9
$CHAMFERB
 40
0.0
  9
$CHAMFERC
 40
0.0
  9
$CHAMFERD
 40
0.0
  9
$SKPOLY
 70
     0
  9
$TDCREATE
 40
2458799.418456366
  9
$TDUCREATE
 40
2458799.376789699
  9
$TDUPDATE
 40
2458799.418477523
  9
$TDUUPDATE
 40
2458799.376810857
  9
$TDINDWG
 40
0.0000000116
  9
$TDUSRTIMER
 40
0.0000000116
  9
$USRTIMER
 70
     1
  9
$ANGBASE
 50
0.0
  9
$ANGDIR
 70
     0
  9
$PDMODE
 70
     0
  9
$PDSIZE
 40
0.0
  9
$PLINEWID
 40
0.0
  9
$SPLFRAME
 70
     0
  9
$SPLINETYPE
 70
     6
  9
$SPLINESEGS
 70
     8
  9
$HANDSEED
  5
3C0
  9
$SURFTAB1
 70
     6
  9
$SURFTAB2
 70
     6
  9
$SURFTYPE
 70
     6
  9
$SURFU
 70
     6
  9
$SURFV
 70
     6
  9
$UCSBASE
  2

  9
$UCSNAME
  2

  9
$UCSORG
 10
0.0
 20
0.0
 30
0.0
  9
$UCSXDIR
 10
1.0
 20
0.0
 30
0.0
  9
$UCSYDIR
 10
0.0
 20
1.0
 30
0.0
  9
$UCSORTHOREF
  2

  9
$UCSORTHOVIEW
 70
     0
  9
$UCSORGTOP
 10
0.0
 20
0.0
 30
0.0
  9
$UCSORGBOTTOM
 10
0.0
 20
0.0
 30
0.0
  9
$UCSORGLEFT
 10
0.0
 20
0.0
 30
0.0
  9
$UCSORGRIGHT
 10
0.0
 20
0.0
 30
0.0
  9
$UCSORGFRONT
 10
0.0
 20
0.0
 30
0.0
  9
$UCSORGBACK
 10
0.0
 20
0.0
 30
0.0
  9
$PUCSBASE
  2

  9
$PUCSNAME
  2

  9
$PUCSORG
 10
0.0
 20
0.0
 30
0.0
  9
$PUCSXDIR
 10
1.0
 20
0.0
 30
0.0
  9
$PUCSYDIR
 10
0.0
 20
1.0
 30
0.0
  9
$PUCSORTHOREF
  2

  9
$PUCSORTHOVIEW
 70
     0
  9
$PUCSORGTOP
 10
0.0
 20
0.0
 30
0.0
  9
$PUCSORGBOTTOM
 10
0.0
 20
0.0
 30
0.0
  9
$PUCSORGLEFT
 10
0.0
 20
0.0
 30
0.0
  9
$PUCSORGRIGHT
 10
0.0
 20
0.0
 30
0.0
  9
$PUCSORGFRONT
 10
0.0
 20
0.0
 30
0.0
  9
$PUCSORGBACK
 10
0.0
 20
0.0
 30
0.0
  9
$USERI1
 70
     0
  9
$USERI2
 70
     0
  9
$USERI3
 70
     0
  9
$USERI4
 70
     0
  9
$USERI5
 70
     0
  9
$USERR1
 40
0.0
  9
$USERR2
 40
0.0
  9
$USERR3
 40
0.0
  9
$USERR4
 40
0.0
  9
$USERR5
 40
0.0
  9
$WORLDVIEW
 70
     1
  9
$SHADEDGE
 70
     3
  9
$SHADEDIF
 70
    70
  9
$TILEMODE
 70
     1
  9
$MAXACTVP
 70
    64
  9
$PINSBASE
 10
0.0
 20
0.0
 30
0.0
  9
$PLIMCHECK
 70
     0
  9
$PEXTMIN
 10
1.000000000000000E+20
 20
1.000000000000000E+20
 30
1.000000000000000E+20
  9
$PEXTMAX
 10
-1.000000000000000E+20
 20
-1.000000000000000E+20
 30
-1.000000000000000E+20
  9
$PLIMMIN
 10
0.0
 20
0.0
  9
$PLIMMAX
 10
12.0
 20
9.0
  9
$UNITMODE
 70
     0
  9
$VISRETAIN
 70
     1
  9
$PLINEGEN
 70
     0
  9
$PSLTSCALE
 70
     1
  9
$TREEDEPTH
 70
  3020
  9
$CMLSTYLE
  2
Standard
  9
$CMLJUST
 70
     0
  9
$CMLSCALE
 40
1.0
  9
$PROXYGRAPHICS
 70
     1
  9
$MEASUREMENT
 70
     1
  9
$CELWEIGHT
370
    -1
  9
$ENDCAPS
280
     0
  9
$JOINSTYLE
280
     0
  9
$LWDISPLAY
290
     0
  9
$INSUNITS
 70
     4
  9
$HYPERLINKBASE
  1

  9
$STYLESHEET
  1

  9
$XEDIT
290
     1
  9
$CEPSNTYPE
380
     0
  9
$PSTYLEMODE
290
     1
  9
$FINGERPRINTGUID
  2
{cd9bfc81-c957-48cc-9390-5a2361e679a3}
  9
$VERSIONGUID
  2
{FAEB1C32-E019-11D5-929B-00C0DF256EC4}
  9
$EXTNAMES
290
     1
  9
$PSVPSCALE
 40
0.0
  9
$OLESTARTUP
290
     0
  9
$SORTENTS
280
   127
  9
$INDEXCTL
280
     0
  9
$HIDETEXT
280
     1
  9
$XCLIPFRAME
290
     0
  9
$HALOGAP
280
     0
  9
$OBSCOLOR
 70
   257
  9
$OBSLTYPE
280
     0
  9
$INTERSECTIONDISPLAY
280
     0
  9
$INTERSECTIONCOLOR
 70
   257
  9
$DIMASSOC
280
     2
  9
$PROJECTNAME
  1

  9
$CAMERADISPLAY
290
     0
  9
$LENSLENGTH
 40
50.0
  9
$CAMERAHEIGHT
 40
0.0
  9
$STEPSPERSEC
 40
2.0
  9
$STEPSIZE
 40
6.0
  9
$3DDWFPREC
 40
2.0
  9
$PSOLWIDTH
 40
0.25
  9
$PSOLHEIGHT
 40
4.0
  9
$LOFTANG1
 40
1.570796326794897
  9
$LOFTANG2
 40
1.570796326794897
  9
$LOFTMAG1
 40
0.0
  9
$LOFTMAG2
 40
0.0
  9
$LOFTPARAM
 70
     7
  9
$LOFTNORMALS
280
     1
  9
$LATITUDE
 40
37.795
  9
$LONGITUDE
 40
-122.394
  9
$NORTHDIRECTION
 40
0.0
  9
$TIMEZONE
 70
 -8000
  9
$LIGHTGLYPHDISPLAY
280
     1
  9
$TILEMODELIGHTSYNCH
280
     1
  9
$CMATERIAL
347
44
  9
$SOLIDHIST
280
     0
  9
$SHOWHIST
280
     1
  9
$DWFFRAME
280
     2
  9
$DGNFRAME
280
     2
  9
$REALWORLDSCALE
290
     1
  9
$INTERFERECOLOR
 62
   256
  9
$CSHADOW
280
     0
  9
$SHADOWPLANELOCATION
 40
0.0
  0
ENDSEC
  0
SECTION
  2
CLASSES
  0
CLASS
  1
ACDBDICTIONARYWDFLT
  2
AcDbDictionaryWithDefault
  3
ObjectDBX Classes
 90
        0
 91
        3
280
     0
281
     0
  0
CLASS
  1
VISUALSTYLE
  2
AcDbVisualStyle
  3
ObjectDBX Classes
 90
     4095
 91
        3
280
     0
281
     0
  0
CLASS
  1
MATERIAL
  2
AcDbMaterial
  3
ObjectDBX Classes
 90
     1153
 91
        3
280
     0
281
     0
  0
CLASS
  1
SCALE
  2
AcDbScale
  3
ObjectDBX Classes
 90
     1153
 91
        3
280
     0
281
     0
  0
CLASS
  1
TABLESTYLE
  2
AcDbTableStyle
  3
ObjectDBX Classes
 90
     4095
 91
        3
280
     0
281
     0
  0
CLASS
  1
MLEADERSTYLE
  2
AcDbMLeaderStyle
  3
ACDB_MLEADERSTYLE_CLASS
 90
     4095
 91
        3
280
     0
281
     0
  0
CLASS
  1
SUN
  2
AcDbSun
  3
SCENEOE
 90
     1153
 91
        3
280
     0
281
     0
  0
CLASS
  1
DICTIONARYVAR
  2
AcDbDictionaryVar
  3
ObjectDBX Classes
 90
        0
 91
        3
280
     0
281
     0
  0
CLASS
  1
CELLSTYLEMAP
  2
AcDbCellStyleMap
  3
ObjectDBX Classes
 90
     1152
 91
        3
280
     0
281
     0
  0
ENDSEC
  0
SECTION
  2
TABLES
  0
TABLE
  2
VPORT
  5
8
330
0
100
AcDbSymbolTable
 70
     1
  0
VPORT
  5
29
330
8
100
AcDbSymbolTableRecord
100
AcDbViewportTableRecord
  2
*Active
 70
     0
 10
0.0
 20
0.0
 11
1.0
 21
1.0
 12
10.42990654205607
 22
4.5
 13
0.0
 23
0.0
 14
0.5
 24
0.5
 15
0.5
 25
0.5
 16
0.0
 26
0.0
 36
1.0
 17
0.0
 27
0.0
 37
0.0
 40
9.0
 41
1.972972972850329
 42
50.0
 43
0.0
 44
0.0
 50
0.0
 51
0.0
 71
     0
 72
   100
 73
     1
 74
     3
 75
     0
 76
     0
 77
     0
 78
     0
281
     0
 65
     1
110
0.0
120
0.0
130
0.0
111
1.0
121
0.0
131
0.0
112
0.0
122
1.0
132
0.0
 79
     0
146
0.0
348
2F
 60
     3
 61
     5
292
     1
282
     1
141
0.0
142
0.0
 63
   250
361
6D
  0
ENDTAB
  0
TABLE
  2
LTYPE
  5
5
330
0
100
AcDbSymbolTable
 70
     1
  0
LTYPE
  5
14
330
5
100
AcDbSymbolTableRecord
100
AcDbLinetypeTableRecord
  2
ByBlock
 70
     0
  3

 72
    65
 73
     0
 40
0.0
  0
LTYPE
  5
15
330
5
100
AcDbSymbolTableRecord
100
AcDbLinetypeTableRecord
  2
ByLayer
 70
     0
  3

 72
    65
 73
     0
 40
0.0
  0
LTYPE
  5
16
330
5
100
AcDbSymbolTableRecord
100
AcDbLinetypeTableRecord
  2
Continuous
 70
     0
  3
Solid line
 72
    65
 73
     0
 40
0.0
  0
ENDTAB
  0
TABLE
  2
LAYER
  5
2
330
0
100
AcDbSymbolTable
 70
     2
  0
LAYER
  5
10
330
2
100
AcDbSymbolTableRecord
100
AcDbLayerTableRecord
  2
0
 70
     0
 62
     7
  6
Continuous
370
    -3
390
F
347
46
  0
LAYER
  5
6E
330
2
100
AcDbSymbolTableRecord
100
AcDbLayerTableRecord
  2
Layer 01
 70
     0
 62
    18
420
        0
  6
Continuous
370
    -3
390
F
347
46
  0
ENDTAB
  0
TABLE
  2
STYLE
  5
3
330
0
100
AcDbSymbolTable
 70
     1
  0
STYLE
  5
11
330
3
100
AcDbSymbolTableRecord
100
AcDbTextStyleTableRecord
  2
Standard
 70
     0
 40
0.0
 41
1.0
 50
0.0
 71
     0
 42
0.2
  3
txt
  4

  0
ENDTAB
  0
TABLE
  2
VIEW
  5
6
330
0
100
AcDbSymbolTable
 70
     0
  0
ENDTAB
  0
TABLE
  2
UCS
  5
7
330
0
100
AcDbSymbolTable
 70
     0
  0
ENDTAB
  0
TABLE
  2
APPID
  5
9
330
0
100
AcDbSymbolTable
 70
     2
  0
APPID
  5
12
330
9
100
AcDbSymbolTableRecord
100
AcDbRegAppTableRecord
  2
ACAD
 70
     0
  0
APPID
  5
3B8
330
9
100
AcDbSymbolTableRecord
100
AcDbRegAppTableRecord
  2
ACAD_MLEADERVER
 70
     0
  0
ENDTAB
  0
TABLE
  2
DIMSTYLE
  5
A
330
0
100
AcDbSymbolTable
 70
     1
100
AcDbDimStyleTable
  0
DIMSTYLE
105
27
330
A
100
AcDbSymbolTableRecord
100
AcDbDimStyleTableRecord
  2
STANDARD_ACAD
 70
     0
178
     0
340
11
  0
ENDTAB
  0
TABLE
  2
BLOCK_RECORD
  5
1
330
0
100
AcDbSymbolTable
 70
     5
  0
BLOCK_RECORD
  5
1F
330
1
100
AcDbSymbolTableRecord
100
AcDbBlockTableRecord
  2
*Model_Space
340
22
 70
     0
280
     1
281
     0
  0
BLOCK_RECORD
  5
1B
330
1
100
AcDbSymbolTableRecord
100
AcDbBlockTableRecord
  2
*Paper_Space
340
1E
 70
     0
280
     1
281
     0
  0
BLOCK_RECORD
  5
23
330
1
100
AcDbSymbolTableRecord
100
AcDbBlockTableRecord
  2
*Paper_Space0
340
26
 70
     0
280
     1
281
     0
  0
BLOCK_RECORD
  5
6F
330
1
100
AcDbSymbolTableRecord
100
AcDbBlockTableRecord
  2
D81C_2000_ASM
340
0
102
{BLKREFS
331
382
102
}
 70
     0
280
     1
281
     0
  0
BLOCK_RECORD
  5
70
330
1
100
AcDbSymbolTableRecord
100
AcDbBlockTableRecord
  2
D81C_2000
340
0
102
{BLKREFS
331
15E
102
}
 70
     0
280
     1
281
     0
  0
BLOCK_RECORD
  5
15F
330
1
100
AcDbSymbolTableRecord
100
AcDbBlockTableRecord
  2
D8107218_FOND-ROSONE-1100
340
0
102
{BLKREFS
331
30A
102
}
 70
     0
280
     1
281
     0
  0
BLOCK_RECORD
  5
30B
330
1
100
AcDbSymbolTableRecord
100
AcDbBlockTableRecord
  2
D8107219_COP-ROSONE-1100
340
0
102
{BLKREFS
331
37F
102
}
 70
     0
280
     1
281
     0
  0
ENDTAB
  0
ENDSEC
  0
SECTION
  2
BLOCKS
  0
BLOCK
  5
20
330
1F
100
AcDbEntity
  8
0
100
AcDbBlockBegin
  2
*Model_Space
 70
     0
 10
0.0
 20
0.0
 30
0.0
  3
*Model_Space
  1

  0
ENDBLK
  5
21
330
1F
100
AcDbEntity
  8
0
100
AcDbBlockEnd
  0
BLOCK
  5
1C
330
1B
100
AcDbEntity
 67
     1
  8
0
100
AcDbBlockBegin
  2
*Paper_Space
 70
     0
 10
0.0
 20
0.0
 30
0.0
  3
*Paper_Space
  1

  0
ENDBLK
  5
1D
330
1B
100
AcDbEntity
 67
     1
  8
0
100
AcDbBlockEnd
  0
BLOCK
  5
24
330
23
100
AcDbEntity
  8
0
100
AcDbBlockBegin
  2
*Paper_Space0
 70
     0
 10
0.0
 20
0.0
 30
0.0
  3
*Paper_Space0
  1

  0
ENDBLK
  5
25
330
23
100
AcDbEntity
  8
0
100
AcDbBlockEnd
  0
BLOCK
  5
380
330
6F
100
AcDbEntity
  8
0
100
AcDbBlockBegin
  2
D81C_2000_ASM
 70
     0
 10
0.0
 20
0.0
 30
0.0
  3
D81C_2000_ASM
  1

  0
INSERT
  5
15E
330
6F
100
AcDbEntity
  8
Layer 01
100
AcDbBlockReference
  2
D81C_2000
 10
0.0
 20
0.0
 30
0.0
  0
INSERT
  5
30A
330
6F
100
AcDbEntity
  8
Layer 01
100
AcDbBlockReference
  2
D8107218_FOND-ROSONE-1100
 10
983.0
 20
1000.0
 30
0.0
  0
INSERT
  5
37F
330
6F
100
AcDbEntity
  8
Layer 01
100
AcDbBlockReference
  2
D8107219_COP-ROSONE-1100
 10
-983.0
 20
1008.8
 30
0.0
 50
180.0
210
0.0
220
0.0
230
-1.0
  0
ENDBLK
  5
381
330
6F
100
AcDbEntity
  8
0
100
AcDbBlockEnd
  0
BLOCK
  5
15C
330
70
100
AcDbEntity
  8
0
100
AcDbBlockBegin
  2
D81C_2000
 70
     0
 10
0.0
 20
0.0
 30
0.0
  3
D81C_2000
  1

  0
ARC
  5
71
330
70
100
AcDbEntity
  8
Layer 01
100
AcDbCircle
 10
10.40205486171154
 20
0.0
 30
21.80978452096772
 40
3.500000000003352
210
0.9862946270633413
220
0.1649936623812705
230
7.000482359107640E-21
100
AcDbArc
 50
180.0
 51
0.0
  0
SPLINE
  5
72
330
70
100
AcDbEntity
  8
Layer 01
100
AcDbSpline
210
0.0
220
0.0
230
1.0
 70
    24
 71
     2
 72
     6
 73
     3
 74
     0
 42
0.000000001
 43
0.0000000001
 40
-1.131370849904505
 40
-1.131370849904505
 40
-1.131370849904505
 40
0.0
 40
0.0
 40
0.0
 10
21.0291187526
 20
11.32696648122
 30
0.0
 10
20.700598366725
 20
10.86645116544
 30
0.0
 10
20.37207798085
 20
10.40593584966
 30
0.0
  0
ARC
  5
73
330
70
100
AcDbEntity
  8
Layer 01
100
AcDbCircle
 10
10.40205486170469
 20
0.0
 30
22.6097845209748
 40
2.699999999999086
210
0.9862946270632966
220
0.1649936623815373
230
2.758008134972518E-22
100
AcDbArc
 50
180.0
 51
0.0
  0
SPLINE
  5
74
330
70
100
AcDbEntity
  8
Layer 01
100
AcDbSpline
210
0.0
220
0.0
230
1.0
 70
    24
 71
     2
 72
     6
 73
     3
 74
     0
 42
0.000000001
 43
0.0000000001
 40
-1.131370849904506
 40
-1.131370849904506
 40
-1.131370849904506
 40
0.0
 40
0.0
 40
0.0
 10
19.21712234418001
 20
17.30999823911
 30
0.0
 10
19.67763765996
 20
16.981477853235
 30
0.0
 10
20.13815297574
 20
16.65295746736
 30
0.0
  0
SPLINE
  5
75
330
70
100
AcDbEntity
  8
Layer 01
100
AcDbSpline
210
0.0
220
0.0
230
1.0
 70
    24
 71
     2
 72
     6
 73
     3
 74
     0
 42
0.000000001
 43
0.0000000001
 40
-2.336339483457159
 40
-2.336339483457159
 40
-2.336339483457159
 40
0.0
 40
0.0
 40
0.0
 10
14.08839028345
 20
16.45203119472
 30
0.0
 10
15.240549823215
 20
16.64477179869
 30
0.0
 10
16.39270936298
 20
16.83751240266
 30
0.0
  0
ARC
  5
76
330
70
100
AcDbEntity
  8
Layer 01
100
AcDbCircle
 10
10.40205486170516
 20
0.0
 30
16.6097845209685
 40
3.499999999999407
210
0.9862946270633102
220
0.1649936623814562
230
1.486523230695204E-20
100
AcDbArc
 50
180.0
 51
0.0
  0
SPLINE
  5
77
330
70
100
AcDbEntity
  8
Layer 01
100
AcDbSpline
210
0.0
220
0.0
230
1.0
 70
    24
 71
     2
 72
     6
 73
     3
 74
     0
 42
0.000000001
 43
0.0000000001
 40
-2.336339483457655
 40
-2.336339483457655
 40
-2.336339483457655
 40
0.0
 40
0.0
 40
0.0
 10
17.54766499965
 20
9.933450013221
 30
0.0
 10
16.395505459885
 20
9.7407094092495
 30
0.0
 10
15.24334592012
 20
9.547968805278
 30
0.0
  0
SPLINE
  5
78
330
70
100
AcDbEntity
  8
Layer 01
100
AcDbSpline
210
0.0
220
0.0
230
1.0
 70
    24
 71
     2
 72
     6
 73
     3
 74
     0
 42
0.000000001
 43
0.0000000001
 40
-0.8636605165401766
 40
-0.8636605165401766
 40
-0.8636605165401766
 40
0.0
 40
0.0
 40
0.0
 10
20.37207798085
 20
10.40593584966
 30
0.0
 10
19.946166117315
 20
10.33468659382
 30
0.0
 10
19.52025425378
 20
10.26343733798
 30
0.0
  0
SPLINE
  5
79
330
70
100
AcDbEntity
  8
Layer 01
100
AcDbSpline
210
0.0
220
0.0
230
1.0
 70
    24
 71
     2
 72
     6
 73
     3
 74
     0
 42
0.000000001
 43
0.0000000001
 40
-0.8636605165401768
 40
-0.8636605165401768
 40
-0.8636605165401768
 40
0.0
 40
0.0
 40
0.0
 10
18.36529861711
 20
17.16749972743
 30
0.0
 10
18.791210480645
 20
17.23874898327
 30
0.0
 10
19.21712234418001
 20
17.30999823911
 30
0.0
  0
SPLINE
  5
7A
330
70
100
AcDbEntity
  8
Layer 01
100
AcDbSpline
 70
     0
 71
     3
 72
    21
 73
    17
 74
     0
 42
0.000000001
 43
0.0000000001
 40
0.0
 40
0.0
 40
0.0
 40
0.0
 40
0.226980647471345
 40
0.4539612949425629
 40
0.6809419424140033
 40
0.9079225898854436
 40
1.134903237356884
 40
1.361883884828007
 40
1.588864532299447
 40
1.815845179770887
 40
2.04282582724201
 40
2.26980647471345
 40
2.496787122184891
 40
2.723767769656331
 40
2.950748417127453
 40
3.177729064598894
 40
3.177729064598894
 40
3.177729064598894
 40
3.177729064598894
 10
16.39270936298
 20
16.83751240266
 30
0.0
 10
16.39270936298
 20
16.83751240266
 30
-0.08007370733848
 10
16.41215155432
 20
16.8352534521
 30
-0.2340179510723
 10
16.49277359626
 20
16.82697954089
 30
-0.4488804977537
 10
16.6175737223
 20
16.81738700122
 30
-0.6369721287076
 10
16.78127378786
 20
16.81088097981
 30
-0.794566343204
 10
16.97901968954
 20
16.81283350353
 30
-0.9143995380799
 10
17.19472922988
 20
16.82802965439
 30
-0.9860688599773
 10
17.41384330757
 20
16.85793235782
 30
-1.00808349685
 10
17.63067392915
 20
16.90241235591
 30
-0.9812642740648
 10
17.83484644677
 20
16.95828110677
 30
-0.9060906734587
 10
18.01724672503
 20
17.01977075824
 30
-0.7856655290132
 10
18.16936980914
 20
17.07947624231
 30
-0.6238271867638
 10
18.28069030777
 20
17.1279662095
 30
-0.4343459920302
 10
18.35014465963
 20
17.16022828268
 30
-0.220409501392
 10
18.36529861711
 20
17.16749972743
 30
-0.07461382811401
 10
18.36529861711
 20
17.16749972743
 30
0.0
  0
SPLINE
  5
7B
330
70
100
AcDbEntity
  8
Layer 01
100
AcDbSpline
210
0.0
220
0.0
230
1.0
 70
    24
 71
     2
 72
     6
 73
     3
 74
     0
 42
0.000000001
 43
0.0000000001
 40
0.0
 40
0.0
 40
0.0
 40
7.000000000006703
 40
7.000000000006703
 40
7.000000000006703
 10
18.36529861711
 20
17.16749972743
 30
0.0
 10
18.942776435445
 20
13.715468532705
 30
0.0
 10
19.52025425378
 20
10.26343733798
 30
0.0
  0
SPLINE
  5
7C
330
70
100
AcDbEntity
  8
Layer 01
100
AcDbSpline
 70
     0
 71
     3
 72
    21
 73
    17
 74
     0
 42
0.000000001
 43
0.0000000001
 40
0.0
 40
0.0
 40
0.0
 40
0.0
 40
0.2269794114980043
 40
0.4539588229958816
 40
0.6809382344939813
 40
0.907917645992081
 40
1.134897057490181
 40
1.361876468987963
 40
1.588855880486062
 40
1.815835291984162
 40
2.042814703481944
 40
2.269794114980043
 40
2.496773526478143
 40
2.723752937976243
 40
2.950732349474025
 40
3.177711760972124
 40
3.177711760972124
 40
3.177711760972124
 40
3.177711760972124
 10
19.52025425378
 20
10.26343733798
 30
0.0
 10
19.52025425378
 20
10.26343733798
 30
-0.0746176662106
 10
19.50353591048
 20
10.26538234302
 30
-0.2204063590876
 10
19.42754070758
 20
10.27326799448
 30
-0.4340286371488
 10
19.30644374066
 20
10.28289068277
 30
-0.623679827441
 10
19.14360270173
 20
10.28983341531
 30
-0.7852303975548
 10
18.95101446525
 20
10.28863265273
 30
-0.9058793457083
 10
18.74021580108
 20
10.27507699975
 30
-0.9810432540799
 10
18.52061988088
 20
10.24661017326
 30
-1.008073617649
 10
18.30401991029
 20
10.20369109697
 30
-0.9862734303625
 10
18.0951249328
 20
10.14794560141
 30
-0.9149549699154
 10
17.90718875905
 20
10.08537724754
 30
-0.7951694406968
 10
17.7547576407
 20
10.026084697
 30
-0.6382881572594
 10
17.63934179683
 20
9.976200178321
 30
-0.4499249175255
 10
17.56565963585
 20
9.942077072797
 30
-0.2356087556919
 10
17.54766499965
 20
9.933450013221
 30
-0.08072063824499
 10
17.54766499965
 20
9.933450013221
 30
0.0
  0
SPLINE
  5
7D
330
70
100
AcDbEntity
  8
Layer 01
100
AcDbSpline
210
0.0
220
0.0
230
1.0
 70
    24
 71
     2
 72
     6
 73
     3
 74
     0
 42
0.000000001
 43
0.0000000001
 40
0.0
 40
0.0
 40
0.0
 40
6.999999999995853
 40
6.999999999995853
 40
6.999999999995853
 10
17.54766499965
 20
9.933450013221
 30
0.0
 10
16.970187181315
 20
13.3854812079405
 30
0.0
 10
16.39270936298
 20
16.83751240266
 30
0.0
  0
SPLINE
  5
7E
330
70
100
AcDbEntity
  8
Layer 01
100
AcDbSpline
 70
     0
 71
     3
 72
    21
 73
    17
 74
     0
 42
0.000000001
 43
0.0000000001
 40
0.0
 40
0.0
 40
0.0
 40
0.0
 40
0.2269816208758121
 40
0.453963241751497
 40
0.6809448626274045
 40
0.907926483503312
 40
1.134908104379219
 40
1.361889725254809
 40
1.588871346130716
 40
1.815852967006624
 40
2.042834587882214
 40
2.269816208758121
 40
2.496797829634029
 40
2.723779450509936
 40
2.950761071385525
 40
3.177742692261433
 40
3.177742692261433
 40
3.177742692261433
 40
3.177742692261433
 10
18.36529861711
 20
17.16749972743
 30
0.0
 10
18.36529861711
 20
17.16749972743
 30
0.08020596118569
 10
18.34742295895
 20
17.15893498558
 30
0.2343209791455
 10
18.27510848884
 20
17.12542136034
 30
0.4467148022532
 10
18.15933991409
 20
17.07531593916
 30
0.6370342729414
 10
18.00770277508
 20
17.01633859334
 30
0.7931290983385
 10
17.82597721854
 20
16.95558152684
 30
0.9104889004635
 10
17.62138496592
 20
16.90023297194
 30
0.9833310370137
 10
17.40585844036
 20
16.85655069675
 30
1.008226462704
 10
17.18173973692
 20
16.82656684025
 30
0.9837574898628
 10
16.9609965769
 20
16.81212182575
 30
0.9061926857978
 10
16.76452339313
 20
16.81121587202
 30
0.7814298083096
 10
16.60402093815
 20
16.81823675198
 30
0.62039394092
 10
16.48361271553
 20
16.82785057435
 30
0.4302563012261
 10
16.40907038439
 20
16.83561279389
 30
0.2180839110133
 10
16.39270936298
 20
16.83751240266
 30
0.07372253855904
 10
16.39270936298
 20
16.83751240266
 30
0.0
  0
SPLINE
  5
7F
330
70
100
AcDbEntity
  8
Layer 01
100
AcDbSpline
 70
     0
 71
     3
 72
    21
 73
    17
 74
     0
 42
0.000000001
 43
0.0000000001
 40
0.0
 40
0.0
 40
0.0
 40
0.0
 40
0.2269827589738718
 40
0.4539655179476165
 40
0.6809482769215837
 40
0.9079310358955508
 40
1.134913794869518
 40
1.361896553843167
 40
1.588879312817134
 40
1.815862071791102
 40
2.042844830764751
 40
2.269827589738718
 40
2.496810348712685
 40
2.723793107686652
 40
2.950775866660301
 40
3.177758625634269
 40
3.177758625634269
 40
3.177758625634269
 40
3.177758625634269
 10
17.54766499965
 20
9.933450013221
 30
0.0
 10
17.54766499965
 20
9.933450013221
 30
0.07372283143521
 10
17.56251163205
 20
9.940568695703
 30
0.2181113240207
 10
17.63056528737
 20
9.972213952963
 30
0.4305043551898
 10
17.74144516498
 20
10.02055434571
 30
0.6207339328944
 10
17.89100795084
 20
10.07945090473
 30
0.7817251461625
 10
18.07737708667
 20
10.14261721906
 30
0.9065463628648
 10
18.29110547908
 20
10.2008191884
 30
0.9839620997145
 10
18.51255434375
 20
10.24531373831
 30
1.008237112675
 10
18.73107432612
 20
10.27416109007
 30
0.9830748108469
 10
18.94233510962
 20
10.28832200523
 30
0.9100054215059
 10
19.13402294816
 20
10.28996835347
 30
0.7923162327795
 10
19.2964604878
 20
10.28351061172
 30
0.6358705193403
 10
19.42189249774
 20
10.27381383707
 30
0.4455465613914
 10
19.50092746736
 20
10.26567694526
 30
0.232732876365
 10
19.52025425378
 20
10.26343733798
 30
0.0795552210742
 10
19.52025425378
 20
10.26343733798
 30
0.0
  0
ARC
  5
80
330
70
100
AcDbEntity
  8
Layer 01
100
AcDbCircle
 10
-10.40205486171155
 20
0.0
 30
-21.80978452096771
 40
3.500000000003352
210
-0.9862946270633413
220
-0.16499366238127
230
0.0
100
AcDbArc
 50
0.000000000000007
 51
180.0
  0
ARC
  5
81
330
70
100
AcDbEntity
  8
Layer 01
100
AcDbCircle
 10
10.40205486170515
 20
0.0
 30
16.60978452096851
 40
3.499999999999407
210
0.9862946270633099
220
0.1649936623814567
230
-1.486523230695204E-20
100
AcDbArc
 50
0.000000000000007
 51
180.0
  0
ARC
  5
82
330
70
100
AcDbEntity
  8
Layer 01
100
AcDbCircle
 10
10.40205486170469
 20
0.0
 30
22.6097845209748
 40
2.699999999999086
210
0.9862946270632966
220
0.1649936623815373
230
2.758008134972518E-22
100
AcDbArc
 50
0.000000000000007
 51
180.0
  0
LINE
  5
83
330
70
100
AcDbEntity
  8
Layer 01
100
AcDbLine
 10
20.1381529757401
 20
16.65295746736002
 30
0.0
 11
21.0291187525999
 21
11.32696648121999
 31
0.0
  0
LINE
  5
84
330
70
100
AcDbEntity
  8
Layer 01
100
AcDbLine
 10
20.58363586417
 20
13.98996197429
 30
2.699999999999086
 11
20.58363586417
 21
13.98996197429
 31
-2.699999999999086
  0
ARC
  5
85
330
70
100
AcDbEntity
  8
Layer 01
100
AcDbCircle
 10
-10.40205486170722
 20
0.0
 30
-22.53920259536518
 40
2.770581925608897
210
-0.9862946270633028
220
-0.1649936623815003
230
0.0
100
AcDbArc
 50
180.0
 51
0.0000000000000257
  0
LINE
  5
86
330
70
100
AcDbEntity
  8
Layer 01
100
AcDbLine
 10
20.58363586417001
 20
13.98996197429172
 30
-2.699999999999382
 11
19.79460016251516
 21
13.85796704438581
 31
-3.500000000003647
  0
ARC
  5
87
330
70
100
AcDbEntity
  8
Layer 01
100
AcDbCircle
 10
10.40205486170743
 20
0.0000000000000219
 30
19.2097845209699
 40
3.500000000000004
210
0.9862946270633024
220
0.1649936623815017
230
-1.776356839400252E-15
100
AcDbArc
 50
191.1587580905831
 51
348.8420805594372
  0
LINE
  5
88
330
70
100
AcDbEntity
  8
Layer 01
100
AcDbLine
 10
14.66586810178449
 20
13.00000000000199
 30
-3.500000000000009
 11
19.79460016251483
 21
13.857967044386
 31
-3.500000000000024
  0
ARC
  5
89
330
70
100
AcDbEntity
  8
Layer 01
100
AcDbCircle
 10
-19.94612400442957
 20
-0.0000000000000036
 30
10.40205486170692
 40
0.9999999999999947
210
-0.1649936623815017
220
0.9862946270633024
230
0.0
100
AcDbArc
 50
180.0
 51
0.0000000000000577
  0
LINE
  5
8A
330
70
100
AcDbEntity
  8
Layer 01
100
AcDbLine
 10
18.50988764340966
 20
10.24234052264219
 30
-1.000000000000002
 11
17.40307597082406
 21
16.85860923312156
 31
-0.9999999999999946
  0
LINE
  5
8B
330
70
100
AcDbEntity
  8
Layer 01
100
AcDbLine
 10
17.54766499965305
 20
9.93345001322151
 30
-0.000000000000003
 11
16.39270936298323
 21
16.83751240266054
 31
-0.0000000000000005
  0
ARC
  5
8C
330
70
100
AcDbEntity
  8
Layer 01
100
AcDbCircle
 10
-19.94612400442957
 20
0.0000000000000036
 30
10.40205486170692
 40
0.9999999999999947
210
-0.1649936623815017
220
0.9862946270633024
230
0.0
100
AcDbArc
 50
359.9999999999999
 51
180.0
  0
LINE
  5
8D
330
70
100
AcDbEntity
  8
Layer 01
100
AcDbLine
 10
17.54766499965305
 20
9.93345001322151
 30
0.000000000000003
 11
16.39270936298323
 21
16.83751240266054
 31
0.0000000000000005
  0
LINE
  5
8E
330
70
100
AcDbEntity
  8
Layer 01
100
AcDbLine
 10
18.50988742640883
 20
10.24234181982387
 30
1.000000000000002
 11
17.4030762011375
 21
16.85860785636014
 31
0.9999999999999946
  0
ARC
  5
8F
330
70
100
AcDbEntity
  8
Layer 01
100
AcDbCircle
 10
10.40205486170743
 20
-0.0000000000000219
 30
19.2097845209699
 40
3.500000000000004
210
0.9862946270633024
220
0.1649936623815017
230
1.776356839400252E-15
100
AcDbArc
 50
11.15165351971049
 51
168.8481594650518
  0
LINE
  5
90
330
70
100
AcDbEntity
  8
Layer 01
100
AcDbLine
 10
14.66586810178449
 20
13.00000000000199
 30
3.500000000000009
 11
19.79460016251482
 21
13.85796704438601
 31
3.500000000000023
  0
ARC
  5
91
330
70
100
AcDbEntity
  8
Layer 01
100
AcDbCircle
 10
-10.40205486170722
 20
0.0
 30
-22.53920259536519
 40
2.770581925608895
210
-0.9862946270633027
220
-0.1649936623815005
230
0.0
100
AcDbArc
 50
0.0
 51
180.0
  0
LINE
  5
92
330
70
100
AcDbEntity
  8
Layer 01
100
AcDbLine
 10
20.58363586417001
 20
13.98996197429171
 30
2.699999999999382
 11
19.79460016251517
 21
13.85796704438581
 31
3.500000000003647
  0
LINE
  5
93
330
70
100
AcDbEntity
  8
Layer 01
100
AcDbLine
 10
14.08839028345487
 20
16.45203119472082
 30
0.0
 11
15.24334592012518
 21
9.547968805278865
 31
0.0
  0
LINE
  5
94
330
70
100
AcDbEntity
  8
Layer 01
100
AcDbLine
 10
14.66586810179003
 20
12.99999999999984
 30
3.499999999999407
 11
14.66586810179003
 21
12.99999999999984
 31
-3.499999999999407
  0
ARC
  5
95
330
70
100
AcDbEntity
  8
Layer 01
100
AcDbCircle
 10
-477.8390162771286
 20
-748.8276238776402
 30
-1431.681643096447
 40
2.699999999976852
210
-0.4931473135357552
220
0.1649936623329716
230
-0.8541562026599239
100
AcDbArc
 50
344.0512605659762
 51
164.0512605659491
  0
ARC
  5
96
330
70
100
AcDbEntity
  8
Layer 01
100
AcDbCircle
 10
-477.8390162771749
 20
-748.8276238776189
 30
-1431.681643096443
 40
2.699999999976854
210
-0.4931473135357537
220
0.1649936623329895
230
-0.8541562026599212
100
AcDbArc
 50
164.0512605659613
 51
344.051260565957
  0
SPLINE
  5
97
330
70
100
AcDbEntity
  8
Layer 01
100
AcDbSpline
210
0.0
220
0.0
230
1.0
 70
    24
 71
     2
 72
     6
 73
     3
 74
     0
 42
0.000000001
 43
0.0000000001
 40
-1.131370849997938
 40
-1.131370849997938
 40
-1.131370849997938
 40
0.0
 40
0.0
 40
0.0
 10
1464.891438828
 20
17.30999823911
 30
834.6604557823999
 10
1464.66118117
 20
16.981477853235
 30
834.2616378201
 10
1464.430923512
 20
16.65295746736
 30
833.8628198578
  0
SPLINE
  5
98
330
70
100
AcDbEntity
  8
Layer 01
100
AcDbSpline
210
0.0
220
0.0
230
1.0
 70
    24
 71
     2
 72
     6
 73
     3
 74
     0
 42
0.000000001
 43
0.0000000001
 40
-2.336339483575084
 40
-2.336339483575084
 40
-2.336339483575084
 40
0.0
 40
0.0
 40
0.0
 10
1465.7261675
 20
9.933450013221
 30
836.1062482533
 10
1466.30224727
 20
9.7407094092495
 30
837.10404768395
 10
1466.87832704
 20
9.547968805278
 30
838.1018471145999
  0
ARC
  5
99
330
70
100
AcDbEntity
  8
Layer 01
100
AcDbCircle
 10
-477.8390163420122
 20
-748.8276238487081
 30
-1432.481643090087
 40
3.499999999989542
210
-0.4931473135336649
220
0.1649936623579627
230
-0.8541562026563032
100
AcDbArc
 50
344.0512605649087
 51
164.0512605649057
  0
SPLINE
  5
9A
330
70
100
AcDbEntity
  8
Layer 01
100
AcDbSpline
 70
     0
 71
     3
 72
    21
 73
    17
 74
     0
 42
0.000000001
 43
0.0000000001
 40
0.0
 40
0.0
 40
0.0
 40
0.0
 40
0.2269806474888053
 40
0.4539612949774834
 40
0.6809419424663841
 40
0.9079225899552847
 40
1.134903237444185
 40
1.361883884932768
 40
1.588864532421669
 40
1.815845179910569
 40
2.042825827399152
 40
2.269806474888053
 40
2.496787122376953
 40
2.723767769865854
 40
2.950748417354437
 40
3.177729064843338
 40
3.177729064843338
 40
3.177729064843338
 40
3.177729064843338
 10
1466.303645319
 20
16.83751240266
 30
837.1064691749
 10
1466.234299454
 20
16.83751240266
 30
837.1465060286
 10
1466.091258732
 20
16.8352534521
 30
837.2066407188
 10
1465.864871288
 20
16.82697954089
 30
837.2442512557
 10
1465.639579094
 20
16.81738700122
 30
837.2302169917
 10
1465.421248468
 20
16.81088097981
 30
837.1672456836
 10
1465.218596926
 20
16.81283350353
 30
837.0559093066
 10
1465.048674702
 20
16.82802965439
 30
836.9049340258
 10
1464.920052429
 20
16.85793235782
 30
836.7261829866
 10
1464.834863246
 20
16.90241235591
 30
836.5249925487
 10
1464.797879235
 20
16.95828110677
 30
836.3105871613
 10
1464.81097033
 20
17.01977075824
 30
836.0924113145
 10
1464.875064904
 20
17.07947624231
 30
835.879749688
 10
1464.983500183
 20
17.1279662095
 30
835.6886027109
 10
1465.134047443
 20
17.16022828268
 30
835.5214852324
 10
1465.252733221
 20
17.16749972743
 30
835.4354636837
 10
1465.317350691
 20
17.16749972743
 30
835.3981567696
  0
SPLINE
  5
9B
330
70
100
AcDbEntity
  8
Layer 01
100
AcDbSpline
210
0.0
220
0.0
230
1.0
 70
    24
 71
     2
 72
     6
 73
     3
 74
     0
 42
0.000000001
 43
0.0000000001
 40
0.0
 40
0.0
 40
0.0
 40
6.999999999979029
 40
6.999999999979029
 40
6.999999999979029
 10
1465.317350691
 20
17.16749972743
 30
835.3981567696
 10
1465.028611782
 20
13.715468532705
 30
834.8980463088
 10
1464.739872873
 20
10.26343733798
 30
834.397935848
  0
SPLINE
  5
9C
330
70
100
AcDbEntity
  8
Layer 01
100
AcDbSpline
 70
     0
 71
     3
 72
    21
 73
    17
 74
     0
 42
0.000000001
 43
0.0000000001
 40
0.0
 40
0.0
 40
0.0
 40
0.0
 40
0.2269794114900545
 40
0.4539588229799819
 40
0.6809382344701318
 40
0.9079176459602817
 40
1.134897057450432
 40
1.361876468940264
 40
1.588855880430413
 40
1.815835291920563
 40
2.042814703410396
 40
2.269794114900545
 40
2.496773526390695
 40
2.723752937880845
 40
2.950732349370677
 40
3.177711760860827
 40
3.177711760860827
 40
3.177711760860827
 40
3.177711760860827
 10
1464.739872873
 20
10.26343733798
 30
834.397935848
 10
1464.675252079
 20
10.26343733798
 30
834.4352446811
 10
1464.557354539
 20
10.26538234302
 30
834.5226175376
 10
1464.41034982
 20
10.27326799448
 30
834.6952424529
 10
1464.306655555
 20
10.28289068277
 30
834.8949410977
 10
1464.248169177
 20
10.28983341531
 30
835.1167408592
 10
1464.239978241
 20
10.28863265273
 30
835.3438516386
 10
1464.280283719
 20
10.27507699975
 30
835.563990591
 10
1464.366672698
 20
10.24661017326
 30
835.7676814183
 10
1464.493852199
 20
10.20369109697
 30
835.9443624016
 10
1464.660063286
 20
10.14794560141
 30
836.0896115286
 10
1464.857768685
 20
10.08537724754
 30
836.1924762648
 10
1465.069847421
 20
10.026084697
 30
836.2460448439
 10
1465.290682693
 20
9.976200178321
 30
836.2518162768
 10
1465.513127014
 20
9.942077072797
 30
836.2084688191
 10
1465.656261377
 20
9.933450013221
 30
836.1466085724
 10
1465.7261675
 20
9.933450013221
 30
836.1062482533
  0
SPLINE
  5
9D
330
70
100
AcDbEntity
  8
Layer 01
100
AcDbSpline
210
0.0
220
0.0
230
1.0
 70
    24
 71
     2
 72
     6
 73
     3
 74
     0
 42
0.000000001
 43
0.0000000001
 40
0.0
 40
0.0
 40
0.0
 40
7.000000000050677
 40
7.000000000050677
 40
7.000000000050677
 10
1465.7261675
 20
9.933450013221
 30
836.1062482533
 10
1466.0149064095
 20
13.3854812079405
 30
836.6063587141
 10
1466.303645319
 20
16.83751240266
 30
837.1064691749
  0
SPLINE
  5
9E
330
70
100
AcDbEntity
  8
Layer 01
100
AcDbSpline
 70
     0
 71
     3
 72
    21
 73
    17
 74
     0
 42
0.000000001
 43
0.0000000001
 40
0.0
 40
0.0
 40
0.0
 40
0.0
 40
0.2269816208619801
 40
0.4539632417238331
 40
0.6809448625859086
 40
0.9079264834479841
 40
1.13490810431006
 40
1.361889725171817
 40
1.588871346033893
 40
1.815852966895968
 40
2.042834587757726
 40
2.269816208619801
 40
2.496797829481877
 40
2.723779450343952
 40
2.95076107120571
 40
3.177742692067785
 40
3.177742692067785
 40
3.177742692067785
 40
3.177742692067785
 10
1465.317350691
 20
17.16749972743
 30
835.3981567696
 10
1465.386811091
 20
17.16749972743
 30
835.358053789
 10
1465.529216441
 20
17.15893498558
 30
835.2964770541
 10
1465.749312123
 20
17.12542136034
 30
835.2529063107
 10
1465.972017906
 20
17.07531593916
 30
835.2580051021
 10
1466.18301856
 20
17.01633859334
 30
835.3112793039
 10
1466.375517908
 20
16.95558152684
 30
835.4099783513
 10
1466.540897175
 20
16.90023297194
 30
835.5507393712
 10
1466.670220509
 20
16.85655069675
 30
835.7249431047
 10
1466.761089109
 20
16.82656684025
 30
835.9312700818
 10
1466.804287598
 20
16.81212182575
 30
836.1612216681
 10
1466.794476369
 20
16.81121587202
 30
836.3937538752
 10
1466.735266444
 20
16.81823675198
 30
836.6132710122
 10
1466.630806529
 20
16.82785057435
 30
836.8126164117
 10
1466.484331015
 20
16.83561279389
 30
836.9832581592
 10
1466.36749091
 20
16.83751240266
 30
837.0696079056
 10
1466.303645319
 20
16.83751240266
 30
837.1064691749
  0
SPLINE
  5
9F
330
70
100
AcDbEntity
  8
Layer 01
100
AcDbSpline
 70
     0
 71
     3
 72
    21
 73
    17
 74
     0
 42
0.000000001
 43
0.0000000001
 40
0.0
 40
0.0
 40
0.0
 40
0.0
 40
0.2269827589810688
 40
0.4539655179620106
 40
0.6809482769431748
 40
0.9079310359243391
 40
1.134913794905503
 40
1.36189655388635
 40
1.588879312867514
 40
1.815862071848678
 40
2.042844830829525
 40
2.269827589810689
 40
2.496810348791853
 40
2.723793107773017
 40
2.950775866753863
 40
3.177758625735028
 40
3.177758625735028
 40
3.177758625735028
 40
3.177758625735028
 10
1465.7261675
 20
9.933450013221
 30
836.1062482533
 10
1465.790013345
 20
9.933450013221
 30
836.0693868376
 10
1465.907634131
 20
9.940568695703
 30
835.9843350305
 10
1466.057545064
 20
9.972213952963
 30
835.8192023206
 10
1466.166848772
 20
10.02055434571
 30
835.6280627409
 10
1466.23148986
 20
10.07945090473
 30
835.4180419623
 10
1466.246403637
 20
10.14261721906
 30
835.1942309478
 10
1466.206583435
 20
10.2008191884
 30
834.9704288621
 10
1466.116881781
 20
10.24531373831
 30
834.7665110131
 10
1465.985830597
 20
10.27416109007
 30
834.5898483081
 10
1465.816920258
 20
10.28832200523
 30
834.4434257974
 10
1465.619154511
 20
10.28996835347
 30
834.336263854
 10
1465.402449779
 20
10.28351061172
 30
834.2738116749
 10
1465.174908392
 20
10.27381383707
 30
834.2603463468
 10
1464.95108885
 20
10.26567694526
 30
834.2983068978
 10
1464.808769716
 20
10.26343733798
 30
834.3581582375
 10
1464.739872873
 20
10.26343733798
 30
834.397935848
  0
SPLINE
  5
A0
330
70
100
AcDbEntity
  8
Layer 01
100
AcDbSpline
210
0.0
220
0.0
230
1.0
 70
    24
 71
     2
 72
     6
 73
     3
 74
     0
 42
0.000000001
 43
0.0000000001
 40
0.0
 40
0.0
 40
0.0
 40
0.8636605162856894
 40
0.8636605162856894
 40
0.8636605162856894
 10
1465.317350691
 20
17.16749972743
 30
835.3981567696
 10
1465.1043947595
 20
17.23874898327
 30
835.0293062759999
 10
1464.891438828
 20
17.30999823911
 30
834.6604557823999
  0
ARC
  5
A1
330
70
100
AcDbEntity
  8
Layer 01
100
AcDbCircle
 10
477.8390163419006
 20
-748.8276238487591
 30
1432.481643090097
 40
3.4999999999895
210
0.4931473135336684
220
-0.1649936623579195
230
0.8541562026563095
100
AcDbArc
 50
195.9487394350777
 51
15.94873943510098
  0
SPLINE
  5
A2
330
70
100
AcDbEntity
  8
Layer 01
100
AcDbSpline
210
0.0
220
0.0
230
1.0
 70
    24
 71
     2
 72
     6
 73
     3
 74
     0
 42
0.000000001
 43
0.0000000001
 40
0.0
 40
0.0
 40
0.0
 40
0.8636605162857862
 40
0.8636605162857862
 40
0.8636605162857862
 10
1464.31396101
 20
10.40593584966
 30
833.6602348608001
 10
1464.5269169415
 20
10.33468659382
 30
834.0290853544
 10
1464.739872873
 20
10.26343733798
 30
834.397935848
  0
SPLINE
  5
A3
330
70
100
AcDbEntity
  8
Layer 01
100
AcDbSpline
210
0.0
220
0.0
230
1.0
 70
    24
 71
     2
 72
     6
 73
     3
 74
     0
 42
0.000000001
 43
0.0000000001
 40
0.0
 40
0.0
 40
0.0
 40
2.336339483081447
 40
2.336339483081447
 40
2.336339483081447
 10
1467.455804858
 20
16.45203119472
 30
839.1020680362
 10
1466.8797250885
 20
16.64477179869
 30
838.10426860555
 10
1466.303645319
 20
16.83751240266
 30
837.1064691749
  0
SPLINE
  5
A4
330
70
100
AcDbEntity
  8
Layer 01
100
AcDbSpline
210
0.0
220
0.0
230
1.0
 70
    24
 71
     2
 72
     6
 73
     3
 74
     0
 42
0.000000001
 43
0.0000000001
 40
0.0
 40
0.0
 40
0.0
 40
1.131370849911815
 40
1.131370849911815
 40
1.131370849911815
 10
1463.985440624
 20
11.32696648122
 30
833.0912208611999
 10
1464.149700817
 20
10.86645116544
 30
833.375727861
 10
1464.31396101
 20
10.40593584966
 30
833.6602348608001
  0
ARC
  5
A5
330
70
100
AcDbEntity
  8
Layer 01
100
AcDbCircle
 10
-477.8390163424419
 20
-748.8276238481458
 30
-1437.681643089846
 40
3.499999999985601
210
-0.4931473135336433
220
0.164993662358219
230
-0.8541562026562661
100
AcDbArc
 50
344.0512605648809
 51
164.0512605648942
  0
ARC
  5
A6
330
70
100
AcDbEntity
  8
Layer 01
100
AcDbCircle
 10
-477.8390163422642
 20
-748.8276238482249
 30
-1437.681643089863
 40
3.499999999985575
210
-0.4931473135336492
220
0.1649936623581508
230
-0.8541562026562762
100
AcDbArc
 50
164.0512605649018
 51
344.0512605648827
  0
LINE
  5
A7
330
70
100
AcDbEntity
  8
Layer 01
100
AcDbLine
 10
1464.430923512214
 20
16.65295746733807
 30
833.8628198578282
 11
1463.985440623787
 21
11.3269664812419
 31
833.0912208611713
  0
LINE
  5
A8
330
70
100
AcDbEntity
  8
Layer 01
100
AcDbLine
 10
1466.546450658198
 20
13.98996197429031
 30
832.1270203595114
 11
1461.869913477803
 21
13.9899619742902
 31
834.8270203594884
  0
LINE
  5
A9
330
70
100
AcDbEntity
  8
Layer 01
100
AcDbLine
 10
1464.430923511844
 20
16.65295746741837
 30
833.8628198578422
 11
1464.891438827662
 21
17.30999823922161
 31
834.6604557825033
  0
LINE
  5
AA
330
70
100
AcDbEntity
  8
Layer 01
100
AcDbLine
 10
1461.86991347733
 20
13.98996197427321
 30
834.8270203595978
 11
1461.571611005113
 21
13.85796704436147
 31
835.910345321774
  0
LINE
  5
AB
330
70
100
AcDbEntity
  8
Layer 01
100
AcDbLine
 10
1463.98544062344
 20
11.32696648103615
 30
833.091220861226
 11
1464.313961009317
 21
10.40593584946958
 31
833.6602348608862
  0
ARC
  5
AC
330
70
100
AcDbEntity
  8
Layer 01
100
AcDbCircle
 10
-477.8390164038432
 20
-748.8276238209857
 30
-1435.081643083752
 40
3.499999999998598
210
-0.4931473135315484
220
0.1649936623817694
230
-0.8541562026529265
100
AcDbArc
 50
355.1982925188552
 51
152.9046190127735
  0
LINE
  5
AD
330
70
100
AcDbEntity
  8
Layer 01
100
AcDbLine
 10
1464.13597703587
 20
13.00000000001405
 30
840.351957575336
 11
1461.571611005593
 21
13.85796704437221
 31
835.9103453216906
  0
ARC
  5
AE
330
70
100
AcDbEntity
  8
Layer 01
100
AcDbCircle
 10
-1459.292512258157
 20
807.7924013183676
 30
253.6744339334642
 40
0.9999999999999725
210
0.082496831190827
220
0.9862946270632573
230
0.1428887030860818
100
AcDbArc
 50
300.3435549014558
 51
120.3435548970039
  0
LINE
  5
AF
330
70
100
AcDbEntity
  8
Layer 01
100
AcDbLine
 10
1464.379030774521
 20
10.24234052265315
 30
835.7729389997191
 11
1464.932436610813
 21
16.8586092331162
 31
836.731466025384
  0
ARC
  5
B0
330
70
100
AcDbEntity
  8
Layer 01
100
AcDbCircle
 10
-1459.292512258157
 20
807.7924013184199
 30
253.6960307515167
 40
1.000000000000078
210
0.08249683119083662
220
0.9862946270632871
230
0.1428887030858711
100
AcDbArc
 50
120.3435549013733
 51
300.343554901362
  0
LINE
  5
B1
330
70
100
AcDbEntity
  8
Layer 01
100
AcDbLine
 10
1466.111081690592
 20
10.24234181983238
 30
834.7729391876481
 11
1466.664487303225
 21
16.85860785633537
 31
835.7314658259231
  0
ARC
  5
B2
330
70
100
AcDbEntity
  8
Layer 01
100
AcDbCircle
 10
-477.8390164035545
 20
-748.8276238209437
 30
-1435.081643083868
 40
3.499999999999977
210
-0.4931473135316534
220
0.1649936623816908
230
-0.8541562026528808
100
AcDbArc
 50
175.1979211240027
 51
332.904548695881
  0
LINE
  5
B3
330
70
100
AcDbEntity
  8
Layer 01
100
AcDbLine
 10
1470.198154862359
 20
13.00000000001243
 30
836.8519575753367
 11
1467.633788832081
 21
13.85796704436889
 31
832.4103453216915
  0
LINE
  5
B4
330
70
100
AcDbEntity
  8
Layer 01
100
AcDbLine
 10
1466.839166571828
 20
9.561070831557862
 30
838.0340191941058
 11
1465.726167500165
 21
9.933450013239092
 31
836.1062482532079
  0
LINE
  5
B5
330
70
100
AcDbEntity
  8
Layer 01
100
AcDbLine
 10
1464.73987287312
 20
10.26343733799647
 30
834.3979358479337
 11
1464.546929246095
 21
10.32799102161722
 31
834.063747682929
  0
LINE
  5
B6
330
70
100
AcDbEntity
  8
Layer 01
100
AcDbLine
 10
1466.546450657963
 20
13.98996197427311
 30
832.1270203594838
 11
1467.63378883187
 21
13.85796704436139
 31
832.4103453216204
  0
LINE
  5
B7
330
70
100
AcDbEntity
  8
Layer 01
100
AcDbLine
 10
1467.455804858166
 20
16.4520311947064
 30
839.1020680361984
 11
1466.878327039833
 21
9.547968805291664
 31
838.1018471146018
  0
LINE
  5
B8
330
70
100
AcDbEntity
  8
Layer 01
100
AcDbLine
 10
1470.198154862233
 20
12.99999999999897
 30
836.851957575407
 11
1464.135977035767
 21
12.99999999999883
 31
840.351957575393
  0
ARC
  5
B9
330
70
100
AcDbEntity
  8
Layer 01
100
AcDbCircle
 10
-477.8390162772204
 20
748.8276238775984
 30
-1431.681643096438
 40
2.699999999976857
210
-0.4931473135357524
220
0.164993662333007
230
0.8541562026599188
100
AcDbArc
 50
195.9487394340433
 51
15.94873943403868
  0
ARC
  5
BA
330
70
100
AcDbEntity
  8
Layer 01
100
AcDbCircle
 10
-477.8390162772739
 20
748.8276238775754
 30
-1431.681643096433
 40
2.699999999976887
210
-0.4931473135357505
220
0.1649936623330275
230
0.8541562026599159
100
AcDbArc
 50
15.9487394340284
 51
195.9487394340582
  0
SPLINE
  5
BB
330
70
100
AcDbEntity
  8
Layer 01
100
AcDbSpline
210
0.0
220
0.0
230
1.0
 70
    24
 71
     2
 72
     6
 73
     3
 74
     0
 42
0.000000001
 43
0.0000000001
 40
-1.131370849997938
 40
-1.131370849997938
 40
-1.131370849997938
 40
0.0
 40
0.0
 40
0.0
 10
1464.430923512
 20
16.65295746736
 30
-833.8628198578001
 10
1464.66118117
 20
16.981477853235
 30
-834.2616378201001
 10
1464.891438828
 20
17.30999823911
 30
-834.6604557824
  0
SPLINE
  5
BC
330
70
100
AcDbEntity
  8
Layer 01
100
AcDbSpline
210
0.0
220
0.0
230
1.0
 70
    24
 71
     2
 72
     6
 73
     3
 74
     0
 42
0.000000001
 43
0.0000000001
 40
-1.131370849911815
 40
-1.131370849911815
 40
-1.131370849911815
 40
0.0
 40
0.0
 40
0.0
 10
1464.31396101
 20
10.40593584966
 30
-833.6602348607998
 10
1464.149700817
 20
10.86645116544
 30
-833.3757278609999
 10
1463.985440624
 20
11.32696648122
 30
-833.0912208611999
  0
ARC
  5
BD
330
70
100
AcDbEntity
  8
Layer 01
100
AcDbCircle
 10
-477.8390163420834
 20
748.8276238486771
 30
-1432.481643090079
 40
3.499999999989514
210
-0.4931473135336625
220
0.16499366235799
230
0.8541562026562993
100
AcDbArc
 50
195.9487394351081
 51
15.94873943507822
  0
SPLINE
  5
BE
330
70
100
AcDbEntity
  8
Layer 01
100
AcDbSpline
210
0.0
220
0.0
230
1.0
 70
    24
 71
     2
 72
     6
 73
     3
 74
     0
 42
0.000000001
 43
0.0000000001
 40
-0.8636605162857862
 40
-0.8636605162857862
 40
-0.8636605162857862
 40
0.0
 40
0.0
 40
0.0
 10
1464.739872873
 20
10.26343733798
 30
-834.397935848
 10
1464.5269169415
 20
10.33468659382
 30
-834.0290853544
 10
1464.31396101
 20
10.40593584966
 30
-833.6602348607998
  0
SPLINE
  5
BF
330
70
100
AcDbEntity
  8
Layer 01
100
AcDbSpline
210
0.0
220
0.0
230
1.0
 70
    24
 71
     2
 72
     6
 73
     3
 74
     0
 42
0.000000001
 43
0.0000000001
 40
-2.336339483575084
 40
-2.336339483575084
 40
-2.336339483575084
 40
0.0
 40
0.0
 40
0.0
 10
1466.87832704
 20
9.547968805278
 30
-838.1018471145999
 10
1466.30224727
 20
9.7407094092495
 30
-837.10404768395
 10
1465.7261675
 20
9.933450013221
 30
-836.1062482533
  0
SPLINE
  5
C0
330
70
100
AcDbEntity
  8
Layer 01
100
AcDbSpline
210
0.0
220
0.0
230
1.0
 70
    24
 71
     2
 72
     6
 73
     3
 74
     0
 42
0.000000001
 43
0.0000000001
 40
-2.336339483081447
 40
-2.336339483081447
 40
-2.336339483081447
 40
0.0
 40
0.0
 40
0.0
 10
1466.303645319
 20
16.83751240266
 30
-837.1064691749
 10
1466.8797250885
 20
16.64477179869
 30
-838.10426860555
 10
1467.455804858
 20
16.45203119472
 30
-839.1020680362
  0
SPLINE
  5
C1
330
70
100
AcDbEntity
  8
Layer 01
100
AcDbSpline
 70
     0
 71
     3
 72
    21
 73
    17
 74
     0
 42
0.000000001
 43
0.0000000001
 40
0.0
 40
0.0
 40
0.0
 40
0.0
 40
0.226981620861573
 40
0.4539632417230188
 40
0.6809448625846872
 40
0.9079264834463555
 40
1.134908104308024
 40
1.361889725169374
 40
1.588871346031043
 40
1.815852966892711
 40
2.042834587754061
 40
2.26981620861573
 40
2.496797829477398
 40
2.723779450339066
 40
2.950761071200417
 40
3.177742692062085
 40
3.177742692062085
 40
3.177742692062085
 40
3.177742692062085
 10
1465.317350691
 20
17.16749972743
 30
-835.3981567696
 10
1465.247890292
 20
17.16749972743
 30
-835.4382597502
 10
1465.1233606
 20
17.15893498558
 30
-835.5307980333
 10
1464.975579389
 20
17.12542136034
 30
-835.699621113
 10
1464.86864218
 20
17.07531593916
 30
-835.895039375
 10
1464.809278665
 20
17.01633859334
 30
-836.1044084023
 10
1464.798504873
 20
16.95558152684
 30
-836.3204672518
 10
1464.837717859
 20
16.90023297194
 30
-836.5340704083
 10
1464.92392105
 20
16.85655069675
 30
-836.7331695674
 10
1465.057171154
 20
16.82656684025
 30
-836.9150275716
 10
1465.234715825
 20
16.81212182575
 30
-837.0674143539
 10
1465.441000238
 20
16.81121587202
 30
-837.1751836835
 10
1465.660712618
 20
16.81823675198
 30
-837.2336649532
 10
1465.885580755
 20
16.82785057435
 30
-837.2428727129
 10
1466.106598601
 20
16.83561279389
 30
-837.2013420702
 10
1466.239799727
 20
16.83751240266
 30
-837.1433304442
 10
1466.303645319
 20
16.83751240266
 30
-837.1064691749
  0
SPLINE
  5
C2
330
70
100
AcDbEntity
  8
Layer 01
100
AcDbSpline
210
0.0
220
0.0
230
1.0
 70
    24
 71
     2
 72
     6
 73
     3
 74
     0
 42
0.000000001
 43
0.0000000001
 40
0.0
 40
0.0
 40
0.0
 40
7.000000000050677
 40
7.000000000050677
 40
7.000000000050677
 10
1466.303645319
 20
16.83751240266
 30
-837.1064691749
 10
1466.0149064095
 20
13.3854812079405
 30
-836.6063587141
 10
1465.7261675
 20
9.933450013221
 30
-836.1062482533
  0
SPLINE
  5
C3
330
70
100
AcDbEntity
  8
Layer 01
100
AcDbSpline
 70
     0
 71
     3
 72
    21
 73
    17
 74
     0
 42
0.000000001
 43
0.0000000001
 40
0.0
 40
0.0
 40
0.0
 40
0.0
 40
0.2269827589323995
 40
0.4539655178646719
 40
0.6809482767971667
 40
0.9079310357296616
 40
1.134913794662156
 40
1.361896553594333
 40
1.588879312526828
 40
1.815862071459323
 40
2.0428448303915
 40
2.269827589323995
 40
2.49681034825649
 40
2.723793107188984
 40
2.950775866121162
 40
3.177758625053657
 40
3.177758625053657
 40
3.177758625053657
 40
3.177758625053657
 10
1465.7261675
 20
9.933450013221
 30
-836.1062482533
 10
1465.662321655
 20
9.933450013221
 30
-836.143109669
 10
1465.529854237
 20
9.940568695703
 30
-836.2024463545
 10
1465.311889648
 20
9.972213952963
 30
-836.2497066758
 10
1465.091706063
 20
10.02055434571
 30
-836.2487966738
 10
1464.877502189
 20
10.07945090473
 30
-836.1997671084
 10
1464.676219277
 20
10.14261721906
 30
-836.1007773107
 10
1464.502311086
 20
10.2008191884
 30
-835.9543909618
 10
1464.370563876
 20
10.24531373831
 30
-835.7747481258
 10
1464.283095077
 20
10.27416109007
 30
-835.5729231189
 10
1464.240744633
 20
10.28832200523
 30
-835.3534312189
 10
1464.246822541
 20
10.28996835347
 30
-835.1285800868
 10
1464.301089733
 20
10.28351061172
 30
-834.9096821942
 10
1464.40319911
 20
10.27381383707
 30
-834.7058929082
 10
1464.547983683
 20
10.26567694526
 30
-834.5310397742
 10
1464.670976031
 20
10.26343733798
 30
-834.4377134585
 10
1464.739872873
 20
10.26343733798
 30
-834.397935848
  0
SPLINE
  5
C4
330
70
100
AcDbEntity
  8
Layer 01
100
AcDbSpline
210
0.0
220
0.0
230
1.0
 70
    24
 71
     2
 72
     6
 73
     3
 74
     0
 42
0.000000001
 43
0.0000000001
 40
0.0
 40
0.0
 40
0.0
 40
6.999999999979029
 40
6.999999999979029
 40
6.999999999979029
 10
1464.739872873
 20
10.26343733798
 30
-834.397935848
 10
1465.028611782
 20
13.715468532705
 30
-834.8980463088
 10
1465.317350691
 20
17.16749972743
 30
-835.3981567696
  0
SPLINE
  5
C5
330
70
100
AcDbEntity
  8
Layer 01
100
AcDbSpline
 70
     0
 71
     3
 72
    21
 73
    17
 74
     0
 42
0.000000001
 43
0.0000000001
 40
0.0
 40
0.0
 40
0.0
 40
0.0
 40
0.2269806474633531
 40
0.4539612949265791
 40
0.6809419423900275
 40
0.907922589853476
 40
1.134903237316924
 40
1.361883884780055
 40
1.588864532243503
 40
1.815845179706952
 40
2.042825827170082
 40
2.269806474633531
 40
2.496787122096979
 40
2.723767769560427
 40
2.950748417023558
 40
3.177729064487007
 40
3.177729064487007
 40
3.177729064487007
 40
3.177729064487007
 10
1466.303645319
 20
16.83751240266
 30
-837.1064691749
 10
1466.372991183
 20
16.83751240266
 30
-837.0664323212
 10
1466.496589713
 20
16.8352534521
 30
-836.9726227678
 10
1466.642355116
 20
16.82697954089
 30
-836.795370758
 10
1466.742847184
 20
16.81738700122
 30
-836.593244863
 10
1466.797477744
 20
16.81088097981
 30
-836.3726793404
 10
1466.802383384
 20
16.81283350353
 30
-836.1415097686
 10
1466.756596068
 20
16.82802965439
 30
-835.9188651658
 10
1466.666104264
 20
16.85793235782
 30
-835.7180994898
 10
1466.534462825
 20
16.90241235591
 30
-835.5437282746
 10
1466.367274318
 20
16.95828110677
 30
-835.4044964879
 10
1466.171782944
 20
17.01977075824
 30
-835.3067457855
 10
1465.955565287
 20
17.07947624231
 30
-835.2559225013
 10
1465.735809509
 20
17.1279662095
 30
-835.2542567188
 10
1465.515807898
 20
17.16022828268
 30
-835.301075731
 10
1465.381968162
 20
17.16749972743
 30
-835.3608498555
 10
1465.317350691
 20
17.16749972743
 30
-835.3981567696
  0
SPLINE
  5
C6
330
70
100
AcDbEntity
  8
Layer 01
100
AcDbSpline
 70
     0
 71
     3
 72
    21
 73
    17
 74
     0
 42
0.000000001
 43
0.0000000001
 40
0.0
 40
0.0
 40
0.0
 40
0.0
 40
0.2269794115233769
 40
0.4539588230466268
 40
0.680938234570099
 40
0.9079176460935714
 40
1.134897057617044
 40
1.361876469140198
 40
1.58885588066367
 40
1.815835292187143
 40
2.042814703710297
 40
2.269794115233769
 40
2.496773526757242
 40
2.723752938280714
 40
2.950732349803868
 40
3.177711761327341
 40
3.177711761327341
 40
3.177711761327341
 40
3.177711761327341
 10
1464.739872873
 20
10.26343733798
 30
-834.397935848
 10
1464.804493668
 20
10.26343733798
 30
-834.3606270149
 10
1464.939109551
 20
10.26538234302
 30
-834.3022111785
 10
1465.162109472
 20
10.27326799448
 30
-834.2612138157
 10
1465.386900704
 20
10.28289068277
 30
-834.2712612702
 10
1465.608228121
 20
10.28983341531
 30
-834.3315104617
 10
1465.809007294
 20
10.28863265273
 30
-834.4379722929
 10
1465.97950048
 20
10.27507699975
 30
-834.5829473369
 10
1466.112707421
 20
10.24661017326
 30
-834.7596078006
 10
1466.202127891
 20
10.20369109697
 30
-834.9580889712
 10
1466.244811781
 20
10.14794560141
 30
-835.1746565587
 10
1466.235042556
 20
10.08537724754
 30
-835.3973068241
 10
1466.175394939
 20
10.026084697
 30
-835.6077566866
 10
1466.06997551
 20
9.976200178321
 30
-835.8018913592
 10
1465.92121335
 20
9.942077072797
 30
-835.9728600634
 10
1465.796073624
 20
9.933450013221
 30
-836.0658879342
 10
1465.7261675
 20
9.933450013221
 30
-836.1062482533
  0
ARC
  5
C7
330
70
100
AcDbEntity
  8
Layer 01
100
AcDbCircle
 10
477.8390163422309
 20
748.8276238486101
 30
1432.481643090065
 40
3.499999999989592
210
0.4931473135336578
220
-0.1649936623580469
230
-0.8541562026562911
100
AcDbArc
 50
344.0512605649031
 51
164.0512605648975
  0
SPLINE
  5
C8
330
70
100
AcDbEntity
  8
Layer 01
100
AcDbSpline
210
0.0
220
0.0
230
1.0
 70
    24
 71
     2
 72
     6
 73
     3
 74
     0
 42
0.000000001
 43
0.0000000001
 40
0.0
 40
0.0
 40
0.0
 40
0.8636605162856894
 40
0.8636605162856894
 40
0.8636605162856894
 10
1464.891438828
 20
17.30999823911
 30
-834.6604557824
 10
1465.1043947595
 20
17.23874898327
 30
-835.0293062759999
 10
1465.317350691
 20
17.16749972743
 30
-835.3981567696
  0
ARC
  5
C9
330
70
100
AcDbEntity
  8
Layer 01
100
AcDbCircle
 10
-477.8390163422944
 20
748.8276238482115
 30
-1437.68164308986
 40
3.499999999985582
210
-0.4931473135336481
220
0.1649936623581623
230
0.8541562026562743
100
AcDbArc
 50
15.94873943511939
 51
195.9487394351038
  0
ARC
  5
CA
330
70
100
AcDbEntity
  8
Layer 01
100
AcDbCircle
 10
-477.8390163424122
 20
748.8276238481587
 30
-1437.681643089848
 40
3.499999999985607
210
-0.4931473135336442
220
0.1649936623582077
230
0.8541562026562679
100
AcDbArc
 50
195.9487394350984
 51
15.94873943512476
  0
LINE
  5
CB
330
70
100
AcDbEntity
  8
Layer 01
100
AcDbLine
 10
1464.430923512213
 20
16.65295746733811
 30
-833.8628198578283
 11
1463.985440623787
 21
11.32696648124188
 31
-833.0912208611715
  0
LINE
  5
CC
330
70
100
AcDbEntity
  8
Layer 01
100
AcDbLine
 10
1461.869913477802
 20
13.98996197429031
 30
-834.8270203594886
 11
1466.546450658198
 21
13.98996197429041
 31
-832.1270203595111
  0
LINE
  5
CD
330
70
100
AcDbEntity
  8
Layer 01
100
AcDbLine
 10
1463.985440623441
 20
11.32696648103713
 30
-833.091220861226
 11
1464.313961009318
 21
10.40593584947024
 31
-833.6602348608865
  0
LINE
  5
CE
330
70
100
AcDbEntity
  8
Layer 01
100
AcDbLine
 10
1461.869913477331
 20
13.98996197427302
 30
-834.8270203595978
 11
1461.571611005114
 21
13.85796704436121
 31
-835.910345321774
  0
ARC
  5
CF
330
70
100
AcDbEntity
  8
Layer 01
100
AcDbCircle
 10
-477.8390164038431
 20
748.8276238209835
 30
-1435.081643083752
 40
3.500000000000147
210
-0.4931473135315484
220
0.1649936623817694
230
0.8541562026529265
100
AcDbArc
 50
207.0953999947326
 51
4.802027560852673
  0
LINE
  5
D0
330
70
100
AcDbEntity
  8
Layer 01
100
AcDbLine
 10
1465.317350691376
 20
17.16749972746781
 30
-835.3981567693902
 11
1464.891438827966
 21
17.30999823910427
 31
-834.6604557824181
  0
LINE
  5
D1
330
70
100
AcDbEntity
  8
Layer 01
100
AcDbLine
 10
1464.135977035869
 20
13.00000000001463
 30
-840.351957575336
 11
1461.571611005592
 21
13.85796704437283
 31
-835.9103453216908
  0
LINE
  5
D2
330
70
100
AcDbEntity
  8
Layer 01
100
AcDbLine
 10
1466.878327039987
 20
9.547968805278309
 30
-838.1018471146073
 11
1465.726167500164
 21
9.933450013240561
 31
-836.1062482532093
  0
LINE
  5
D3
330
70
100
AcDbEntity
  8
Layer 01
100
AcDbLine
 10
1464.739872873118
 20
10.26343733799806
 30
-834.3979358479355
 11
1464.313961009708
 21
10.40593584963466
 31
-833.6602348609636
  0
ARC
  5
D4
330
70
100
AcDbEntity
  8
Layer 01
100
AcDbCircle
 10
-1459.292512258156
 20
-807.7924013184198
 30
253.6743670566551
 40
0.9999999999991765
210
0.0824968311908343
220
0.9862946270632877
230
-0.1428887030858671
100
AcDbArc
 50
239.6564450986117
 51
59.65644509860838
  0
LINE
  5
D5
330
70
100
AcDbEntity
  8
Layer 01
100
AcDbLine
 10
1464.379030883024
 20
10.24234181985232
 30
-835.7729391876496
 11
1464.932436495657
 21
16.85860785633953
 31
-836.731465825921
  0
ARC
  5
D6
330
70
100
AcDbEntity
  8
Layer 01
100
AcDbCircle
 10
-1459.292512258156
 20
-807.7924013183626
 30
253.6960141816412
 40
0.99999999999954
210
0.08249683119083392
220
0.9862946270632549
230
-0.1428887030860938
100
AcDbArc
 50
59.65644509864268
 51
239.6564450986539
  0
LINE
  5
D7
330
70
100
AcDbEntity
  8
Layer 01
100
AcDbLine
 10
1466.111081582088
 20
10.24234052263077
 30
-834.7729389997158
 11
1466.664487418384
 21
16.85860923314876
 31
-835.7314660253899
  0
ARC
  5
D8
330
70
100
AcDbEntity
  8
Layer 01
100
AcDbCircle
 10
-477.8390164035562
 20
748.8276238209432
 30
-1435.081643083868
 40
3.499999999998568
210
-0.4931473135316534
220
0.1649936623816908
230
0.8541562026528808
100
AcDbArc
 50
27.09577138839198
 51
184.8020978831707
  0
LINE
  5
D9
330
70
100
AcDbEntity
  8
Layer 01
100
AcDbLine
 10
1466.878327039989
 20
9.547968805278908
 30
-838.101847114606
 11
1465.726167500167
 21
9.93345001324106
 31
-836.1062482532076
  0
LINE
  5
DA
330
70
100
AcDbEntity
  8
Layer 01
100
AcDbLine
 10
1470.19815486236
 20
13.00000000001426
 30
-836.851957575336
 11
1467.633788832082
 21
13.85796704437071
 31
-832.410345321691
  0
LINE
  5
DB
330
70
100
AcDbEntity
  8
Layer 01
100
AcDbLine
 10
1467.455804858166
 20
16.4520311947064
 30
-839.1020680361983
 11
1466.878327039833
 21
9.547968805291664
 31
-838.1018471146018
  0
LINE
  5
DC
330
70
100
AcDbEntity
  8
Layer 01
100
AcDbLine
 10
1464.135977035767
 20
12.99999999999883
 30
-840.3519575753929
 11
1470.198154862233
 21
12.99999999999897
 31
-836.851957575407
  0
LINE
  5
DD
330
70
100
AcDbEntity
  8
Layer 01
100
AcDbLine
 10
1466.546450657962
 20
13.98996197427297
 30
-832.1270203594834
 11
1467.63378883187
 21
13.85796704436119
 31
-832.4103453216198
  0
ARC
  5
DE
330
70
100
AcDbEntity
  8
Layer 01
100
AcDbCircle
 10
29.64124662421123
 20
-17.24115272656127
 30
17.10815865453072
 40
4.00000000000172
210
0.9861444096143981
220
0.1649936623813661
230
0.01721321469841997
100
AcDbArc
 50
179.8349900384994
 51
359.8349900384992
  0
SPLINE
  5
DF
330
70
100
AcDbEntity
  8
Layer 01
100
AcDbSpline
210
0.0
220
0.0
230
1.0
 70
    24
 71
     2
 72
     6
 73
     3
 74
     0
 42
0.000000001
 43
0.0000000001
 40
-0.7071067811885037
 40
-0.7071067811885037
 40
-0.7071067811885037
 40
0.0
 40
0.0
 40
0.0
 10
13.34294158359
 20
28.73705779329
 30
-16.92542691276
 10
13.137647614445
 20
28.44923572093
 30
-16.929010332325
 10
12.9323536453
 20
28.16141364857
 30
-16.93259375189
  0
ARC
  5
E0
330
70
100
AcDbEntity
  8
Layer 01
100
AcDbCircle
 10
29.64124662419252
 20
-17.24115272656098
 30
17.60815865456259
 40
3.500000000003985
210
0.9861444096142363
220
0.1649936623823332
230
0.01721321469841715
100
AcDbArc
 50
179.8349900383766
 51
359.8349900385402
  0
SPLINE
  5
E1
330
70
100
AcDbEntity
  8
Layer 01
100
AcDbSpline
210
0.0
220
0.0
230
1.0
 70
    24
 71
     2
 72
     6
 73
     3
 74
     0
 42
0.000000001
 43
0.0000000001
 40
-0.7071067811852793
 40
-0.7071067811852793
 40
-0.7071067811852793
 40
0.0
 40
0.0
 40
0.0
 10
11.61260538092
 20
36.05177066508
 30
-16.95563004353
 10
11.900383616585
 20
35.84644542391
 30
-16.95060685574
 10
12.18816185225
 20
35.64112018274
 30
-16.94558366795
  0
SPLINE
  5
E2
330
70
100
AcDbEntity
  8
Layer 01
100
AcDbSpline
210
0.0
220
0.0
230
1.0
 70
    24
 71
     2
 72
     6
 73
     3
 74
     0
 42
0.000000001
 43
0.0000000001
 40
-0.5000991404214719
 40
-0.5000991404214719
 40
-0.5000991404214719
 40
0.0
 40
0.0
 40
0.0
 10
11.11943540934
 20
35.96925747634999
 30
-16.9642383574
 10
11.36602039513
 20
36.010514070715
 30
-16.959934200465
 10
11.61260538092
 20
36.05177066508
 30
-16.95563004353
  0
ARC
  5
E3
330
70
100
AcDbEntity
  8
Layer 01
100
AcDbCircle
 10
29.64124662421316
 20
-17.24115272655671
 30
16.60805951410926
 40
4.00000000000172
210
0.9861444096143981
220
0.1649936623813665
230
0.01721321469841998
100
AcDbArc
 50
179.8349900384993
 51
359.8349900384993
  0
SPLINE
  5
E4
330
70
100
AcDbEntity
  8
Layer 01
100
AcDbSpline
210
0.0
220
0.0
230
1.0
 70
    24
 71
     2
 72
     6
 73
     3
 74
     0
 42
0.000000001
 43
0.0000000001
 40
-0.5000991404214707
 40
-0.5000991404214707
 40
-0.5000991404214707
 40
0.0
 40
0.0
 40
0.0
 10
12.9323536453
 20
28.16141364857
 30
-16.93259375189
 10
12.68576865951
 20
28.120157054205
 30
-16.936897908825
 10
12.43918367372
 20
28.07890045983999
 30
-16.94120206576
  0
ARC
  5
E5
330
70
100
AcDbEntity
  8
Layer 01
100
AcDbCircle
 10
-29.64124662421122
 20
-17.24115272656129
 30
-17.10815865453073
 40
4.000000000001713
210
-0.9861444096143981
220
-0.1649936623813664
230
-0.01721321469841997
100
AcDbArc
 50
0.1650099615009448
 51
180.1650099615005
  0
ARC
  5
E6
330
70
100
AcDbEntity
  8
Layer 01
100
AcDbCircle
 10
29.64124662421317
 20
-17.2411527265567
 30
16.60805951410925
 40
4.00000000000172
210
0.9861444096143981
220
0.1649936623813662
230
0.01721321469841997
100
AcDbArc
 50
359.8349900384992
 51
179.8349900384993
  0
ARC
  5
E7
330
70
100
AcDbEntity
  8
Layer 01
100
AcDbCircle
 10
29.64124662419251
 20
-17.24115272656098
 30
17.60815865456259
 40
3.500000000003978
210
0.9861444096142363
220
0.1649936623823333
230
0.01721321469841716
100
AcDbArc
 50
359.8349900385404
 51
179.8349900383766
  0
ARC
  5
E8
330
70
100
AcDbEntity
  8
Layer 01
100
AcDbCircle
 10
-29.64124662421253
 20
-17.24115272660265
 30
-17.60815865449237
 40
1.500000000000489
210
-0.9861444096143298
220
-0.164993662381496
230
-0.01721321470109117
100
AcDbArc
 50
90.16500996155237
 51
270.1650099615529
  0
SPLINE
  5
E9
330
70
100
AcDbEntity
  8
Layer 01
100
AcDbSpline
210
0.0
220
0.0
230
1.0
 70
    24
 71
     2
 72
     6
 73
     3
 74
     0
 42
0.000000001
 43
0.0000000001
 40
0.0
 40
0.0
 40
0.0
 40
1.000099140435818
 40
1.000099140435818
 40
1.000099140435818
 10
12.79173032758
 20
32.18908898802
 30
-18.43527683309
 10
12.29860923938
 20
32.106583978055
 30
-18.443884293705
 10
11.80548815118
 20
32.02407896809
 30
-18.45249175432
  0
ARC
  5
EA
330
70
100
AcDbEntity
  8
Layer 01
100
AcDbCircle
 10
-29.64124662420603
 20
-17.24115272655147
 30
-16.60805951411784
 40
1.500000000000403
210
-0.9861444096143872
220
-0.1649936623814961
230
-0.01721321469780635
100
AcDbArc
 50
90.16500996155318
 51
270.1650099614891
  0
ARC
  5
EB
330
70
100
AcDbEntity
  8
Layer 01
100
AcDbCircle
 10
-29.64124662421252
 20
-17.24115272660266
 30
-17.60815865449236
 40
1.500000000000489
210
-0.9861444096143298
220
-0.1649936623814961
230
-0.01721321470109173
100
AcDbArc
 50
270.1650099615526
 51
90.16500996155277
  0
SPLINE
  5
EC
330
70
100
AcDbEntity
  8
Layer 01
100
AcDbSpline
210
0.0
220
0.0
230
1.0
 70
    24
 71
     2
 72
     6
 73
     3
 74
     0
 42
0.000000001
 43
0.0000000001
 40
0.0
 40
0.0
 40
0.0
 40
1.000099140425957
 40
1.000099140425957
 40
1.000099140425957
 10
12.73937310826
 20
32.18908898802
 30
-15.43573374762
 10
12.246252020065
 20
32.106583978055
 30
-15.444341208235
 10
11.75313093187
 20
32.02407896809
 30
-15.45294866885
  0
ARC
  5
ED
330
70
100
AcDbEntity
  8
Layer 01
100
AcDbCircle
 10
-29.64124662420603
 20
-17.24115272655144
 30
-16.60805951411788
 40
1.500000000000404
210
-0.9861444096143872
220
-0.164993662381496
230
-0.0172132146978044
100
AcDbArc
 50
270.1650099614891
 51
90.16500996155318
  0
LINE
  5
EE
330
70
100
AcDbEntity
  8
Layer 01
100
AcDbLine
 10
12.1881618522539
 20
35.64112018274065
 30
-16.94558366795412
 11
12.51809891834867
 21
33.66853092861545
 31
-16.93982459504322
  0
LINE
  5
EF
330
70
100
AcDbEntity
  8
Layer 01
100
AcDbLine
 10
13.01300451749134
 20
30.70964704742455
 30
-16.93118598567684
 11
13.34294158358773
 21
28.7370577932896
 31
-16.9254269127659
  0
LINE
  5
F0
330
70
100
AcDbEntity
  8
Layer 01
100
AcDbLine
 10
12.7044682953904
 20
32.18908898801418
 30
-13.43603835730863
 11
12.73937310826495
 21
32.18908898801418
 31
-15.43573374761991
  0
LINE
  5
F1
330
70
100
AcDbEntity
  8
Layer 01
100
AcDbLine
 10
12.79173032757682
 20
32.18908898801418
 30
-18.43527683309005
 11
12.82663514045154
 21
32.18908898801418
 31
-20.43497222341133
  0
LINE
  5
F2
330
70
100
AcDbEntity
  8
Layer 01
100
AcDbLine
 10
12.82497202559787
 20
32.19903071063305
 30
-20.43498673611534
 11
12.34038843617291
 21
32.11795412553082
 31
-20.94351926428701
  0
LINE
  5
F3
330
70
100
AcDbEntity
  8
Layer 01
100
AcDbLine
 10
13.34311510710045
 20
28.73707210921731
 30
-16.93550529035558
 11
12.93255195788887
 21
28.16143000962575
 31
-16.94411189770481
  0
ARC
  5
F4
330
70
100
AcDbEntity
  8
Layer 01
100
AcDbCircle
 10
29.64124662413511
 20
-17.241152726559
 30
16.8581090843223
 40
4.000000000000003
210
0.9861444096143851
220
0.1649936623814446
230
0.01721321469841895
100
AcDbArc
 50
179.8349900384729
 51
359.8349900384729
  0
LINE
  5
F5
330
70
100
AcDbEntity
  8
Layer 01
100
AcDbLine
 10
11.84911916729184
 20
32.02407896801934
 30
-20.95211099220784
 11
12.34228913887143
 21
32.10659215675128
 31
-20.94350267833327
  0
ARC
  5
F6
330
70
100
AcDbEntity
  8
Layer 01
100
AcDbCircle
 10
29.64124662413506
 20
-17.24115272655901
 30
16.85810908432242
 40
4.0
210
0.9861444096143844
220
0.1649936623814486
230
0.01721321469841899
100
AcDbArc
 50
359.834990038472
 51
179.8349900384729
  0
LINE
  5
F7
330
70
100
AcDbEntity
  8
Layer 01
100
AcDbLine
 10
11.11943540935301
 20
35.96925747627266
 30
-16.96423835740411
 11
11.6126053809326
 21
36.05177066500461
 31
-16.95563004352954
  0
LINE
  5
F8
330
70
100
AcDbEntity
  8
Layer 01
100
AcDbLine
 10
11.70949991579356
 20
32.02407896801935
 30
-12.95332943095671
 11
12.20266988737315
 21
32.10659215675131
 31
-12.94472111708214
  0
LINE
  5
F9
330
70
100
AcDbEntity
  8
Layer 01
100
AcDbLine
 10
12.70613141024323
 20
32.17914726539334
 30
-13.43602384459592
 11
12.20457059005333
 21
32.09523018811399
 31
-12.94470453112268
  0
LINE
  5
FA
330
70
100
AcDbEntity
  8
Layer 01
100
AcDbLine
 10
12.18798832873986
 20
35.64110586681385
 30
-16.93550529035567
 11
11.61240706833696
 21
36.05175430402157
 31
-16.94411189770486
  0
LINE
  5
FB
330
70
100
AcDbEntity
  8
Layer 01
100
AcDbLine
 10
11.1194354093389
 20
35.96925747634981
 30
-16.96423835740185
 11
11.53185674195868
 21
33.50352090868536
 31
-16.95703951626319
  0
LINE
  5
FC
330
70
100
AcDbEntity
  8
Layer 01
100
AcDbLine
 10
12.02676234110132
 20
30.54463702749464
 30
-16.94840090689681
 11
12.43918367371948
 21
28.07890045983991
 31
-16.94120206575818
  0
LINE
  5
FD
330
70
100
AcDbEntity
  8
Layer 01
100
AcDbLine
 10
11.70949991578002
 20
32.02407896809486
 30
-12.95332943095272
 11
11.75313093187334
 21
32.02407896809486
 31
-15.45294866884994
  0
LINE
  5
FE
330
70
100
AcDbEntity
  8
Layer 01
100
AcDbLine
 10
11.80548815118521
 20
32.02407896809486
 30
-18.45249175431991
 11
11.84911916727836
 21
32.02407896809486
 31
-20.9521109922073
  0
ARC
  5
FF
330
70
100
AcDbEntity
  8
Layer 01
100
AcDbCircle
 10
29.64124662421273
 20
-17.24115272656059
 30
17.10810908432519
 40
1.499999999999996
210
0.9861444096143773
220
0.1649936623814912
230
0.01721321469841899
100
AcDbArc
 50
269.8349900383522
 51
89.83499003846049
  0
LINE
  5
100
330
70
100
AcDbEntity
  8
Layer 01
100
AcDbLine
 10
11.80548815117904
 20
32.02407896809558
 30
-18.45249175431854
 11
12.79173032757997
 21
32.18908898802067
 31
-18.43527683309452
  0
LINE
  5
101
330
70
100
AcDbEntity
  8
Layer 01
100
AcDbLine
 10
11.53185674195271
 20
33.50352090869068
 30
-16.95703951626713
 11
12.51809891834877
 21
33.66853092861496
 31
-16.93982459504319
  0
ARC
  5
102
330
70
100
AcDbEntity
  8
Layer 01
100
AcDbCircle
 10
29.64124662421252
 20
-17.24115272656054
 30
17.1081090843255
 40
1.499999999999999
210
0.9861444096143751
220
0.1649936623815045
230
0.01721321469841534
100
AcDbArc
 50
89.83499003847311
 51
269.8349900384729
  0
LINE
  5
103
330
70
100
AcDbEntity
  8
Layer 01
100
AcDbLine
 10
12.02676234109536
 20
30.54463702750079
 30
-16.94840090690075
 11
13.01300451749142
 21
30.70964704742509
 31
-16.93118598567681
  0
ARC
  5
104
330
70
100
AcDbEntity
  8
Layer 01
100
AcDbCircle
 10
-0.0000000000000178
 20
33.9999999999993
 30
-0.0000000000001204
 40
11.00000000000429
210
-1.224646799138018E-16
220
8.544534125046145E-28
230
-1.0
100
AcDbArc
 50
9.49686630371193
 51
170.5031336962881
  0
ARC
  5
105
330
70
100
AcDbEntity
  8
Layer 01
100
AcDbCircle
 10
-983.0000000001501
 20
0.0
 30
35.8149302862
 40
993.84924089785
210
2.516225289311230E-59
220
1.0
230
2.739538497755017E-43
100
AcDbArc
 50
180.0
 51
0.000000000000007
  0
ARC
  5
106
330
70
100
AcDbEntity
  8
Layer 01
100
AcDbCircle
 10
982.9999999998499
 20
0.0
 30
-35.8149302862
 40
972.15075910215
210
0.0
220
-1.0
230
0.0
100
AcDbArc
 50
180.0
 51
0.0
  0
ARC
  5
107
330
70
100
AcDbEntity
  8
Layer 01
100
AcDbCircle
 10
1966.0
 20
33.99999999994912
 30
-0.0000000000000313
 40
11.00000000030854
100
AcDbArc
 50
9.496866303711824
 51
170.5031336962882
  0
ARC
  5
108
330
70
100
AcDbEntity
  8
Layer 01
100
AcDbCircle
 10
982.9999999998499
 20
0.0
 30
-35.8149302862
 40
972.15075910215
210
-3.654488406799871E-18
220
-1.0
230
4.475457529907643E-34
100
AcDbArc
 50
0.0
 51
180.0
  0
ARC
  5
109
330
70
100
AcDbEntity
  8
Layer 01
100
AcDbCircle
 10
-983.0000000001501
 20
0.0
 30
35.8149302862
 40
993.84924089785
210
3.354967052415392E-59
220
1.0
230
2.739538497755017E-43
100
AcDbArc
 50
0.000000000000014
 51
180.0
  0
SPLINE
  5
10A
330
70
100
AcDbEntity
  8
Layer 01
100
AcDbSpline
210
0.0
220
0.0
230
1.0
 70
    24
 71
     2
 72
     6
 73
     3
 74
     0
 42
0.000000001
 43
0.0000000001
 40
0.0
 40
0.0
 40
0.0
 40
35.72201702032265
 40
35.72201702032265
 40
35.72201702032265
 10
10.84924089769996
 20
35.8149302862
 30
0.0000000000001191
 10
13.79619410561499
 20
18.19871355869535
 30
0.0000000000001187
 10
16.74314731353001
 20
0.5824968311907001
 30
0.0000000000001183
  0
SPLINE
  5
10B
330
70
100
AcDbEntity
  8
Layer 01
100
AcDbSpline
210
0.0
220
0.0
230
1.0
 70
    24
 71
     2
 72
     6
 73
     3
 74
     0
 42
0.000000001
 43
0.0000000001
 40
-35.72201702035068
 40
-35.72201702035068
 40
-35.72201702035068
 40
0.0
 40
0.0
 40
0.0
 10
1949.256852686
 20
0.5824968311907015
 30
-0.0000000000000592
 10
1952.203805894
 20
18.19871355869535
 30
-0.0000000000000593
 10
1955.150759102
 20
35.8149302862
 30
-0.0000000000000595
  0
ARC
  5
10C
330
70
100
AcDbEntity
  8
Layer 01
100
AcDbCircle
 10
-16.25
 20
0.4999999999986032
 30
-0.0000000000001184
 40
0.4999999999986032
210
0.0
220
-1.036797535605870E-16
230
-1.0
100
AcDbArc
 50
170.5031336961233
 51
270.0
  0
ARC
  5
10D
330
70
100
AcDbEntity
  8
Layer 01
100
AcDbCircle
 10
-982.999999999765
 20
0.0
 30
0.5824968311907001
 40
966.256852686235
210
-7.468458971340261E-19
220
1.0
230
9.146224346561943E-35
100
AcDbArc
 50
180.0
 51
0.000000000000007
  0
ARC
  5
10E
330
70
100
AcDbEntity
  8
Layer 01
100
AcDbCircle
 10
983.0
 20
0.0
 30
0.0
 40
966.75
210
0.0
220
-1.0
230
0.0
100
AcDbArc
 50
180.0
 51
0.0
  0
ARC
  5
10F
330
70
100
AcDbEntity
  8
Layer 01
100
AcDbCircle
 10
983.0
 20
0.0
 30
0.0
 40
966.75
210
0.0
220
-1.0
230
0.0
100
AcDbArc
 50
0.0
 51
180.0
  0
ARC
  5
110
330
70
100
AcDbEntity
  8
Layer 01
100
AcDbCircle
 10
-982.999999999765
 20
0.0
 30
0.5824968311907001
 40
966.256852686235
210
1.148993687898502E-19
220
1.0
230
-1.407111469380966E-35
100
AcDbArc
 50
0.000000000000014
 51
180.0
  0
ARC
  5
111
330
70
100
AcDbEntity
  8
Layer 01
100
AcDbCircle
 10
1949.75
 20
0.5000000003965324
 30
-0.0000000000000508
 40
0.5000000003965324
100
AcDbArc
 50
170.5031337499828
 51
270.0
  0
SPLINE
  5
112
330
70
100
AcDbEntity
  8
Layer 01
100
AcDbSpline
210
0.0
220
0.0
230
1.0
 70
    24
 71
     2
 72
     6
 73
     3
 74
     0
 42
0.000000001
 43
0.0000000001
 40
-8.219641111386498
 40
-8.219641111386498
 40
-8.219641111386498
 40
0.0
 40
0.0
 40
0.0
 10
15.0
 20
0.0
 30
0.000000000000079
 10
13.50852177705498
 20
3.8296367596
 30
0.000000000000099
 10
12.01704355410997
 20
7.6592735192
 30
0.0000000000001189
  0
ARC
  5
113
330
70
100
AcDbEntity
  8
Layer 01
100
AcDbCircle
 10
-983.0
 20
0.0
 30
0.0
 40
968.0
210
-3.807587287748844E-61
220
1.0
230
-9.327392903162064E-45
100
AcDbArc
 50
180.0
 51
0.0000000000000047
  0
SPLINE
  5
114
330
70
100
AcDbEntity
  8
Layer 01
100
AcDbSpline
210
0.0
220
0.0
230
1.0
 70
    24
 71
     2
 72
     6
 73
     3
 74
     0
 42
0.000000001
 43
0.0000000001
 40
-8.219641111426377
 40
-8.219641111426377
 40
-8.219641111426377
 40
0.0
 40
0.0
 40
0.0
 10
1953.982956446
 20
7.6592735192
 30
-0.0000000000000595
 10
1952.491478223
 20
3.8296367596
 30
-0.0000000000000561
 10
1951.0
 20
0.0
 30
-0.0000000000000527
  0
ARC
  5
115
330
70
100
AcDbEntity
  8
Layer 01
100
AcDbCircle
 10
983.0000000000549
 20
0.0
 30
-7.6592735192
 40
970.982956445945
210
-1.003915972206476E-59
220
-1.0
230
-8.197596016300180E-44
100
AcDbArc
 50
180.0
 51
0.0
  0
ARC
  5
116
330
70
100
AcDbEntity
  8
Layer 01
100
AcDbCircle
 10
983.0000000000549
 20
0.0
 30
-7.6592735192
 40
970.982956445945
210
-7.529369791548898E-60
220
-1.0
230
-8.197596016300180E-44
100
AcDbArc
 50
0.0
 51
180.0
  0
ARC
  5
117
330
70
100
AcDbEntity
  8
Layer 01
100
AcDbCircle
 10
-983.0
 20
0.0
 30
0.0
 40
968.0
210
-3.807587287748979E-61
220
1.0
230
-9.327392903162064E-45
100
AcDbArc
 50
0.0000000000000117
 51
180.0
  0
SPLINE
  5
118
330
70
100
AcDbEntity
  8
Layer 01
100
AcDbSpline
210
0.0
220
0.0
230
1.0
 70
    24
 71
     2
 72
     6
 73
     3
 74
     0
 42
0.000000001
 43
0.0000000001
 40
-0.7063811845129999
 40
-0.7063811845129999
 40
-0.7063811845129999
 40
0.0
 40
0.0
 40
0.0
 10
12.01704355410996
 20
8.365654703713
 30
0.0000000000000793
 10
12.01704355410996
 20
8.0124641114565
 30
0.0000000000000991
 10
12.01704355410997
 20
7.6592735192
 30
0.0000000000001189
  0
ARC
  5
119
330
70
100
AcDbEntity
  8
Layer 01
100
AcDbCircle
 10
983.0000000000549
 20
0.0
 30
-8.365654703713
 40
970.982956445945
210
0.0
220
-1.0
230
0.0
100
AcDbArc
 50
0.0000000000000023
 51
180.0
  0
SPLINE
  5
11A
330
70
100
AcDbEntity
  8
Layer 01
100
AcDbSpline
210
0.0
220
0.0
230
1.0
 70
    24
 71
     2
 72
     6
 73
     3
 74
     0
 42
0.000000001
 43
0.0000000001
 40
-0.7063811845129999
 40
-0.7063811845129999
 40
-0.7063811845129999
 40
0.0
 40
0.0
 40
0.0
 10
1953.982956446
 20
7.6592735192
 30
-0.0000000000000595
 10
1953.982956446
 20
8.0124641114565
 30
-0.0000000000000562
 10
1953.982956446
 20
8.365654703713
 30
-0.0000000000000528
  0
ARC
  5
11B
330
70
100
AcDbEntity
  8
Layer 01
100
AcDbCircle
 10
983.0000000000549
 20
0.0
 30
-8.365654703713
 40
970.982956445945
210
0.0
220
-1.0
230
0.0
100
AcDbArc
 50
180.0
 51
0.0
  0
SPLINE
  5
11C
330
70
100
AcDbEntity
  8
Layer 01
100
AcDbSpline
210
0.0
220
0.0
230
1.0
 70
    24
 71
     2
 72
     6
 73
     3
 74
     0
 42
0.000000001
 43
0.0000000001
 40
0.0
 40
0.0
 40
0.0
 40
0.7063811845129999
 40
0.7063811845129999
 40
0.7063811845129999
 10
-12.01704355410997
 20
7.6592735192
 30
0.0000000000001219
 10
-12.01704355410996
 20
8.0124641114565
 30
0.0000000000001015
 10
-12.01704355410996
 20
8.365654703713
 30
0.0000000000000812
  0
ARC
  5
11D
330
70
100
AcDbEntity
  8
Layer 01
100
AcDbCircle
 10
-982.999999999945
 20
0.0
 30
8.365654703713
 40
995.0170435540549
210
0.0
220
1.0
230
0.0
100
AcDbArc
 50
180.0
 51
0.0000000000000047
  0
SPLINE
  5
11E
330
70
100
AcDbEntity
  8
Layer 01
100
AcDbSpline
210
0.0
220
0.0
230
1.0
 70
    24
 71
     2
 72
     6
 73
     3
 74
     0
 42
0.000000001
 43
0.0000000001
 40
0.0
 40
0.0
 40
0.0
 40
0.7063811845129999
 40
0.7063811845129999
 40
0.7063811845129999
 10
1978.017043554
 20
8.365654703713
 30
-0.0000000000000542
 10
1978.017043554
 20
8.0124641114565
 30
-0.0000000000000575
 10
1978.017043554
 20
7.6592735192
 30
-0.0000000000000609
  0
ARC
  5
11F
330
70
100
AcDbEntity
  8
Layer 01
100
AcDbCircle
 10
-982.9999999999451
 20
0.0
 30
7.6592735192
 40
995.017043554055
210
0.0
220
1.0
230
0.0
100
AcDbArc
 50
180.0
 51
0.000000000000007
  0
ARC
  5
120
330
70
100
AcDbEntity
  8
Layer 01
100
AcDbCircle
 10
-982.9999999999451
 20
0.0
 30
7.6592735192
 40
995.017043554055
210
0.0
220
1.0
230
0.0
100
AcDbArc
 50
0.000000000000014
 51
180.0
  0
ARC
  5
121
330
70
100
AcDbEntity
  8
Layer 01
100
AcDbCircle
 10
-982.9999999999451
 20
0.0
 30
8.365654703713
 40
995.017043554055
210
0.0
220
1.0
230
0.0
100
AcDbArc
 50
0.0000000000000117
 51
180.0
  0
SPLINE
  5
122
330
70
100
AcDbEntity
  8
Layer 01
100
AcDbSpline
210
0.0
220
0.0
230
1.0
 70
    24
 71
     2
 72
     6
 73
     3
 74
     0
 42
0.000000001
 43
0.0000000001
 40
0.0
 40
0.0
 40
0.0
 40
8.219641111386498
 40
8.219641111386498
 40
8.219641111386498
 10
-12.01704355410997
 20
7.6592735192
 30
0.0000000000001219
 10
-13.50852177705498
 20
3.8296367596
 30
0.0000000000001017
 10
-15.0
 20
0.0
 30
0.0000000000000815
  0
ARC
  5
123
330
70
100
AcDbEntity
  8
Layer 01
100
AcDbCircle
 10
-983.0
 20
0.0
 30
0.0
 40
998.0
210
1.036807806053734E-61
220
1.0
230
2.539853466588731E-45
100
AcDbArc
 50
0.0000000000000117
 51
180.0
  0
SPLINE
  5
124
330
70
100
AcDbEntity
  8
Layer 01
100
AcDbSpline
210
0.0
220
0.0
230
1.0
 70
    24
 71
     2
 72
     6
 73
     3
 74
     0
 42
0.000000001
 43
0.0000000001
 40
0.0
 40
0.0
 40
0.0
 40
8.219641111426377
 40
8.219641111426377
 40
8.219641111426377
 10
1981.0
 20
0.0
 30
-0.0000000000000543
 10
1979.508521777
 20
3.8296367596
 30
-0.0000000000000576
 10
1978.017043554
 20
7.6592735192
 30
-0.0000000000000609
  0
ARC
  5
125
330
70
100
AcDbEntity
  8
Layer 01
100
AcDbCircle
 10
-983.0
 20
0.0
 30
0.0
 40
998.0
210
1.036807806053737E-61
220
1.0
230
2.539853466588731E-45
100
AcDbArc
 50
180.0
 51
0.0000000000000047
  0
ARC
  5
126
330
70
100
AcDbEntity
  8
Layer 01
100
AcDbCircle
 10
-983.0000000001983
 20
0.0
 30
0.4999999999999999
 40
999.7500000001983
210
8.328754873405375E-20
220
1.0
230
0.0
100
AcDbArc
 50
180.0
 51
0.0
  0
ARC
  5
127
330
70
100
AcDbEntity
  8
Layer 01
100
AcDbCircle
 10
16.25
 20
0.4999999999986094
 30
-0.0000000000001224
 40
0.4999999999986109
210
3.591782309084409E-29
220
1.036797535473819E-16
230
-1.0
100
AcDbArc
 50
270.0
 51
0.0000000001593458
  0
ARC
  5
128
330
70
100
AcDbEntity
  8
Layer 01
100
AcDbCircle
 10
16.24999999999979
 20
0.4999999999985718
 30
-0.0000000000001224
 40
0.4999999999988243
210
-3.507471969842965E-29
220
1.036797535473878E-16
230
-1.0
100
AcDbArc
 50
0.0000000001636523
 51
9.496866303887764
  0
ARC
  5
129
330
70
100
AcDbEntity
  8
Layer 01
100
AcDbCircle
 10
-983.0
 20
0.0
 30
0.0
 40
999.25
210
0.0
220
1.0
230
0.0
100
AcDbArc
 50
180.0
 51
0.000000000000007
  0
ARC
  5
12A
330
70
100
AcDbEntity
  8
Layer 01
100
AcDbCircle
 10
983.000000000235
 20
0.0
 30
-0.5824968311907999
 40
999.743147313765
210
-5.552541308276245E-20
220
-1.0
230
6.799901940244648E-36
100
AcDbArc
 50
180.0
 51
0.0
  0
ARC
  5
12B
330
70
100
AcDbEntity
  8
Layer 01
100
AcDbCircle
 10
1982.25
 20
0.5000000003965
 30
-0.0000000000000816
 40
0.5000000003965397
100
AcDbArc
 50
270.0
 51
359.9999999545644
  0
ARC
  5
12C
330
70
100
AcDbEntity
  8
Layer 01
100
AcDbCircle
 10
1982.249999999998
 20
0.500000000396251
 30
0.0
 40
0.5000000003983507
100
AcDbArc
 50
359.999999954593
 51
9.49686625002474
  0
ARC
  5
12D
330
70
100
AcDbEntity
  8
Layer 01
100
AcDbCircle
 10
983.000000000235
 20
0.0
 30
-0.5824968311907999
 40
999.743147313765
210
-3.331524784965746E-19
220
-1.0
230
4.079941164181391E-35
100
AcDbArc
 50
0.0
 51
180.0
  0
ARC
  5
12E
330
70
100
AcDbEntity
  8
Layer 01
100
AcDbCircle
 10
-983.0
 20
0.0
 30
0.0
 40
999.25
210
0.0
220
1.0
230
0.0
100
AcDbArc
 50
0.000000000000007
 51
180.0
  0
ARC
  5
12F
330
70
100
AcDbEntity
  8
Layer 01
100
AcDbCircle
 10
-983.0000000000007
 20
0.0
 30
0.4999999999999999
 40
999.7499999999993
210
-5.552503248938021E-20
220
1.0
230
0.0
100
AcDbArc
 50
0.000000000000007
 51
180.0
  0
SPLINE
  5
130
330
70
100
AcDbEntity
  8
Layer 01
100
AcDbSpline
210
0.0
220
0.0
230
1.0
 70
    24
 71
     2
 72
     6
 73
     3
 74
     0
 42
0.000000001
 43
0.0000000001
 40
-35.72201702032255
 40
-35.72201702032255
 40
-35.72201702032255
 40
0.0
 40
0.0
 40
0.0
 10
-10.84924089769996
 20
35.8149302862
 30
0.0000000000001217
 10
-13.79619410561499
 20
18.1987135586954
 30
0.0000000000001221
 10
-16.74314731353001
 20
0.5824968311908
 30
0.0000000000001224
  0
SPLINE
  5
131
330
70
100
AcDbEntity
  8
Layer 01
100
AcDbSpline
210
0.0
220
0.0
230
1.0
 70
    24
 71
     2
 72
     6
 73
     3
 74
     0
 42
0.000000001
 43
0.0000000001
 40
-35.72201702035058
 40
-35.72201702035058
 40
-35.72201702035058
 40
0.0
 40
0.0
 40
0.0
 10
1982.743147314
 20
0.5824968311907992
 30
-0.0000000000000612
 10
1979.796194106
 20
18.1987135586954
 30
-0.000000000000061
 10
1976.849240898
 20
35.8149302862
 30
-0.0000000000000609
  0
ARC
  5
132
330
70
100
AcDbEntity
  8
Layer 01
100
AcDbCircle
 10
-983.0
 20
0.0
 30
45.0
 40
983.0
210
0.0
220
1.0
230
0.0
100
AcDbArc
 50
180.0
 51
0.0
  0
ARC
  5
133
330
70
100
AcDbEntity
  8
Layer 01
100
AcDbCircle
 10
34.0
 20
-983.0
 30
983.0
 40
11.0
210
1.0
220
0.0
230
0.0
100
AcDbArc
 50
279.4968663035794
 51
80.5031336964206
  0
ARC
  5
134
330
70
100
AcDbEntity
  8
Layer 01
100
AcDbCircle
 10
-983.0
 20
0.0
 30
45.0
 40
983.0
210
0.0
220
1.0
230
0.0
100
AcDbArc
 50
0.0
 51
180.0
  0
ARC
  5
135
330
70
100
AcDbEntity
  8
Layer 01
100
AcDbCircle
 10
-34.0
 20
983.0
 30
-983.0
 40
11.0
210
-1.0
220
0.0
230
0.0
100
AcDbArc
 50
99.4968663035794
 51
260.5031336964206
  0
LINE
  5
136
330
70
100
AcDbEntity
  8
Layer 01
100
AcDbLine
 10
983.0
 20
0.5824968311496832
 30
966.256852686476
 11
983.0
 21
35.81493028617115
 31
972.150759102314
  0
LINE
  5
137
330
70
100
AcDbEntity
  8
Layer 01
100
AcDbLine
 10
983.0
 20
0.5824968311496832
 30
-966.256852686476
 11
983.0
 21
35.81493028617115
 31
-972.150759102314
  0
ARC
  5
138
330
70
100
AcDbEntity
  8
Layer 01
100
AcDbCircle
 10
-983.0
 20
0.0
 30
0.5
 40
966.25
210
0.0
220
1.0
230
0.0
100
AcDbArc
 50
180.0
 51
0.0
  0
ARC
  5
139
330
70
100
AcDbEntity
  8
Layer 01
100
AcDbCircle
 10
0.5
 20
-966.75
 30
983.0
 40
0.5
210
1.0
220
0.0
230
0.0
100
AcDbArc
 50
80.50313370072291
 51
180.0
  0
ARC
  5
13A
330
70
100
AcDbEntity
  8
Layer 01
100
AcDbCircle
 10
-983.0
 20
0.0
 30
0.5
 40
966.25
210
0.0
220
1.0
230
0.0
100
AcDbArc
 50
0.0
 51
180.0
  0
ARC
  5
13B
330
70
100
AcDbEntity
  8
Layer 01
100
AcDbCircle
 10
-0.5
 20
966.75
 30
-983.0
 40
0.5
210
-1.0
220
0.0
230
0.0
100
AcDbArc
 50
260.5031337007229
 51
0.0
  0
LINE
  5
13C
330
70
100
AcDbEntity
  8
Layer 01
100
AcDbLine
 10
15.00000000000003
 20
0.0
 30
0.0
 11
16.25000000000003
 21
0.0
 31
0.0
  0
LINE
  5
13D
330
70
100
AcDbEntity
  8
Layer 01
100
AcDbLine
 10
1949.75
 20
0.0
 30
0.0
 11
1951.0
 21
0.0
 31
0.0
  0
LINE
  5
13E
330
70
100
AcDbEntity
  8
Layer 01
100
AcDbLine
 10
982.9999999999999
 20
0.0
 30
968.0
 11
982.9999999999999
 21
0.0
 31
966.75
  0
LINE
  5
13F
330
70
100
AcDbEntity
  8
Layer 01
100
AcDbLine
 10
982.9999999999999
 20
0.0
 30
-966.75
 11
982.9999999999999
 21
0.0
 31
-968.0
  0
LINE
  5
140
330
70
100
AcDbEntity
  8
Layer 01
100
AcDbLine
 10
983.0
 20
0.0000000000145803
 30
-967.9999999999608
 11
983.0
 21
7.659273519233409
 31
-970.9829564458576
  0
LINE
  5
141
330
70
100
AcDbEntity
  8
Layer 01
100
AcDbLine
 10
983.0
 20
0.0000000000145803
 30
967.9999999999608
 11
983.0
 21
7.659273519233409
 31
970.9829564458576
  0
ARC
  5
142
330
70
100
AcDbEntity
  8
Layer 01
100
AcDbCircle
 10
-983.0
 20
0.0
 30
8.0124641114565
 40
970.9829564459001
210
0.0
220
1.0
230
0.0
100
AcDbArc
 50
0.0
 51
180.0
  0
LINE
  5
143
330
70
100
AcDbEntity
  8
Layer 01
100
AcDbLine
 10
983.0
 20
7.659273519200001
 30
970.9829564459001
 11
983.0
 21
8.365654703713
 31
970.9829564459001
  0
ARC
  5
144
330
70
100
AcDbEntity
  8
Layer 01
100
AcDbCircle
 10
-983.0
 20
0.0
 30
8.0124641114565
 40
970.9829564459001
210
0.0
220
1.0
230
0.0
100
AcDbArc
 50
180.0
 51
0.0
  0
LINE
  5
145
330
70
100
AcDbEntity
  8
Layer 01
100
AcDbLine
 10
983.0
 20
7.659273519200001
 30
-970.9829564459001
 11
983.0
 21
8.365654703713
 31
-970.9829564459001
  0
LINE
  5
146
330
70
100
AcDbEntity
  8
Layer 01
100
AcDbLine
 10
-12.01704355410995
 20
8.365654703713
 30
0.0
 11
12.0170435541099
 21
8.365654703713
 31
0.0
  0
LINE
  5
147
330
70
100
AcDbEntity
  8
Layer 01
100
AcDbLine
 10
1953.982956446
 20
8.365654703713
 30
0.0
 11
1978.017043554
 21
8.365654703713
 31
0.0
  0
LINE
  5
148
330
70
100
AcDbEntity
  8
Layer 01
100
AcDbLine
 10
982.9999999999451
 20
8.365654703713
 30
995.0170435540549
 11
982.9999999999451
 21
8.365654703713
 31
970.9829564459449
  0
LINE
  5
149
330
70
100
AcDbEntity
  8
Layer 01
100
AcDbLine
 10
982.9999999999451
 20
8.365654703713
 30
-970.9829564459452
 11
982.9999999999451
 21
8.365654703713
 31
-995.0170435540552
  0
ARC
  5
14A
330
70
100
AcDbEntity
  8
Layer 01
100
AcDbCircle
 10
-983.0
 20
0.0
 30
8.0124641114565
 40
995.0170435540999
210
0.0
220
1.0
230
0.0
100
AcDbArc
 50
180.0
 51
0.0
  0
LINE
  5
14B
330
70
100
AcDbEntity
  8
Layer 01
100
AcDbLine
 10
983.0
 20
7.659273519200001
 30
-995.0170435540999
 11
983.0
 21
8.365654703713
 31
-995.0170435540999
  0
ARC
  5
14C
330
70
100
AcDbEntity
  8
Layer 01
100
AcDbCircle
 10
-983.0
 20
0.0
 30
8.0124641114565
 40
995.0170435540999
210
0.0
220
1.0
230
0.0
100
AcDbArc
 50
0.0
 51
180.0
  0
LINE
  5
14D
330
70
100
AcDbEntity
  8
Layer 01
100
AcDbLine
 10
983.0
 20
7.659273519200001
 30
995.0170435540999
 11
983.0
 21
8.365654703713
 31
995.0170435540999
  0
LINE
  5
14E
330
70
100
AcDbEntity
  8
Layer 01
100
AcDbLine
 10
983.0
 20
7.659273519233608
 30
995.017043554142
 11
983.0
 21
0.0000000000143814
 31
998.000000000039
  0
LINE
  5
14F
330
70
100
AcDbEntity
  8
Layer 01
100
AcDbLine
 10
983.0
 20
7.659273519233608
 30
-995.017043554142
 11
983.0
 21
0.0000000000143814
 31
-998.000000000039
  0
LINE
  5
150
330
70
100
AcDbEntity
  8
Layer 01
100
AcDbLine
 10
-16.25
 20
0.0
 30
0.0
 11
-15.0
 21
0.0
 31
0.0
  0
LINE
  5
151
330
70
100
AcDbEntity
  8
Layer 01
100
AcDbLine
 10
1981.0
 20
0.0
 30
0.0
 11
1982.25
 21
0.0
 31
0.0
  0
LINE
  5
152
330
70
100
AcDbEntity
  8
Layer 01
100
AcDbLine
 10
982.9999999999999
 20
0.0
 30
999.2500000000001
 11
982.9999999999999
 21
0.0
 31
998.0000000000001
  0
LINE
  5
153
330
70
100
AcDbEntity
  8
Layer 01
100
AcDbLine
 10
982.9999999999999
 20
0.0
 30
-997.9999999999997
 11
982.9999999999999
 21
0.0
 31
-999.25
  0
ARC
  5
154
330
70
100
AcDbEntity
  8
Layer 01
100
AcDbCircle
 10
0.5
 20
-999.25
 30
983.0
 40
0.5
210
1.0
220
0.0
230
0.0
100
AcDbArc
 50
270.0
 51
279.4968662992874
  0
ARC
  5
155
330
70
100
AcDbEntity
  8
Layer 01
100
AcDbCircle
 10
0.5
 20
-999.25
 30
983.0
 40
0.5
210
1.0
220
0.0
230
0.0
100
AcDbArc
 50
180.0
 51
270.0
  0
ARC
  5
156
330
70
100
AcDbEntity
  8
Layer 01
100
AcDbCircle
 10
-0.5
 20
999.25
 30
-983.0
 40
0.5
210
-1.0
220
0.0
230
0.0
100
AcDbArc
 50
0.0
 51
89.99999999999999
  0
ARC
  5
157
330
70
100
AcDbEntity
  8
Layer 01
100
AcDbCircle
 10
-0.5
 20
999.25
 30
-983.0
 40
0.5
210
-1.0
220
0.0
230
0.0
100
AcDbArc
 50
90.0
 51
99.49686629928794
  0
ARC
  5
158
330
70
100
AcDbEntity
  8
Layer 01
100
AcDbCircle
 10
983.0
 20
0.0
 30
-18.19871355869554
 40
996.7961941055989
210
0.0
220
-1.0
230
0.0
100
AcDbArc
 50
0.0
 51
180.0
  0
LINE
  5
159
330
70
100
AcDbEntity
  8
Layer 01
100
AcDbLine
 10
983.0
 20
35.81493028617249
 30
993.8492408976856
 11
983.0
 21
0.5824968311504382
 31
999.7431473135238
  0
ARC
  5
15A
330
70
100
AcDbEntity
  8
Layer 01
100
AcDbCircle
 10
983.0
 20
0.0
 30
-18.19871355869554
 40
996.7961941055989
210
0.0
220
-1.0
230
0.0
100
AcDbArc
 50
180.0
 51
0.0000000000000404
  0
LINE
  5
15B
330
70
100
AcDbEntity
  8
Layer 01
100
AcDbLine
 10
983.0
 20
35.81493028617249
 30
-993.8492408976856
 11
983.0
 21
0.5824968311504382
 31
-999.7431473135238
  0
ENDBLK
  5
15D
330
70
100
AcDbEntity
  8
0
100
AcDbBlockEnd
  0
BLOCK
  5
308
330
15F
100
AcDbEntity
  8
0
100
AcDbBlockBegin
  2
D8107218_FOND-ROSONE-1100
 70
     0
 10
0.0
 20
0.0
 30
0.0
  3
D8107218_FOND-ROSONE-1100
  1

  0
ARC
  5
160
330
15F
100
AcDbEntity
  8
Layer 01
100
AcDbCircle
 10
0.0
 20
0.0
 30
-55.0
 40
150.0
210
0.0
220
-1.0
230
0.0
100
AcDbArc
 50
0.000000000000007
 51
180.0
  0
ARC
  5
161
330
15F
100
AcDbEntity
  8
Layer 01
100
AcDbCircle
 10
150.0
 20
44.99999999995742
 30
-0.000000000000023
 40
10.00000000004258
100
AcDbArc
 50
6.264625458867226
 51
90.0
  0
ARC
  5
162
330
15F
100
AcDbEntity
  8
Layer 01
100
AcDbCircle
 10
0.000000000000001
 20
0.0
 30
46.09120616517001
 40
159.9402851622
210
2.221275068502968E-17
220
1.0
230
0.0
100
AcDbArc
 50
0.0
 51
180.0
  0
ARC
  5
163
330
15F
100
AcDbEntity
  8
Layer 01
100
AcDbCircle
 10
-150.0
 20
44.99999999995742
 30
0.0
 40
10.00000000004258
100
AcDbArc
 50
90.0
 51
173.7353745411328
  0
ARC
  5
164
330
15F
100
AcDbEntity
  8
Layer 01
100
AcDbCircle
 10
0.0
 20
0.0
 30
46.09120616517001
 40
159.9402851622
210
-3.523660631092791E-65
220
1.0
230
-4.382328215826506E-49
100
AcDbArc
 50
180.0
 51
0.0
  0
ARC
  5
165
330
15F
100
AcDbEntity
  8
Layer 01
100
AcDbCircle
 10
0.0
 20
0.0
 30
-55.0
 40
150.0
210
0.0
220
-1.0
230
0.0
100
AcDbArc
 50
180.0
 51
0.0
  0
SPLINE
  5
166
330
15F
100
AcDbEntity
  8
Layer 01
100
AcDbSpline
210
0.0
220
0.0
230
1.0
 70
    24
 71
     2
 72
     6
 73
     3
 74
     0
 42
0.000000001
 43
0.0000000001
 40
-46.36809247747914
 40
-46.36809247747914
 40
-46.36809247747914
 40
0.0
 40
0.0
 40
0.0
 10
-165.0
 20
0.0
 30
0.0
 10
-162.4701425811
 20
23.045603082585
 30
0.0
 10
-159.9402851622
 20
46.09120616517001
 30
0.0
  0
ARC
  5
167
330
15F
100
AcDbEntity
  8
Layer 01
100
AcDbCircle
 10
0.0
 20
0.0
 30
0.0
 40
165.0
210
0.0
220
1.0
230
0.0
100
AcDbArc
 50
180.0
 51
0.0
  0
SPLINE
  5
168
330
15F
100
AcDbEntity
  8
Layer 01
100
AcDbSpline
210
0.0
220
0.0
230
1.0
 70
    24
 71
     2
 72
     6
 73
     3
 74
     0
 42
0.000000001
 43
0.0000000001
 40
-46.36809247747914
 40
-46.36809247747914
 40
-46.36809247747914
 40
0.0
 40
0.0
 40
0.0
 10
159.9402851622
 20
46.09120616517001
 30
-0.0000000000000257
 10
162.4701425811
 20
23.045603082585
 30
-0.0000000000000129
 10
165.0
 20
0.0
 30
0.0
  0
ARC
  5
169
330
15F
100
AcDbEntity
  8
Layer 01
100
AcDbCircle
 10
0.0
 20
0.0
 30
0.0
 40
165.0
210
0.0
220
1.0
230
0.0
100
AcDbArc
 50
0.0
 51
180.0
  0
SPLINE
  5
16A
330
15F
100
AcDbEntity
  8
Layer 01
100
AcDbSpline
210
0.0
220
0.0
230
1.0
 70
    24
 71
     2
 72
     6
 73
     3
 74
     0
 42
0.000000001
 43
0.0000000001
 40
-1.499999999975804
 40
-1.499999999975804
 40
-1.499999999975804
 40
0.0
 40
0.0
 40
0.0
 10
-165.0
 20
0.0
 30
0.0
 10
-164.25447861285
 20
-0.0818404623874
 30
0.0
 10
-163.5089572257
 20
-0.1636809247748
 30
0.0
  0
SPLINE
  5
16B
330
15F
100
AcDbEntity
  8
Layer 01
100
AcDbSpline
210
0.0
220
0.0
230
1.0
 70
    24
 71
     2
 72
     6
 73
     3
 74
     0
 42
0.000000001
 43
0.0000000001
 40
-1.499999999975804
 40
-1.499999999975804
 40
-1.499999999975804
 40
0.0
 40
0.0
 40
0.0
 10
163.5089572257
 20
-0.1636809247748
 30
0.0
 10
164.25447861285
 20
-0.0818404623874
 30
0.0
 10
165.0
 20
0.0
 30
0.0
  0
ARC
  5
16C
330
15F
100
AcDbEntity
  8
Layer 01
100
AcDbCircle
 10
0.0
 20
0.0
 30
-0.1636809247748
 40
163.5089572257
210
0.0
220
1.0
230
0.0
100
AcDbArc
 50
0.0
 51
180.0
  0
ARC
  5
16D
330
15F
100
AcDbEntity
  8
Layer 01
100
AcDbCircle
 10
0.0
 20
0.0
 30
-0.1636809247748
 40
163.5089572257
210
0.0
220
1.0
230
0.0
100
AcDbArc
 50
180.0
 51
0.0
  0
SPLINE
  5
16E
330
15F
100
AcDbEntity
  8
Layer 01
100
AcDbSpline
210
0.0
220
0.0
230
1.0
 70
    24
 71
     2
 72
     6
 73
     3
 74
     0
 42
0.000000001
 43
0.0000000001
 40
0.0
 40
0.0
 40
0.0
 40
46.36809247748489
 40
46.36809247748489
 40
46.36809247748489
 10
-163.5089572257
 20
-0.1636809247748
 30
0.0
 10
-160.97909980675
 20
22.8819221578076
 30
0.0
 10
-158.4492423878
 20
45.92752524039
 30
0.0
  0
ARC
  5
16F
330
15F
100
AcDbEntity
  8
Layer 01
100
AcDbCircle
 10
-0.0000000000000142
 20
0.0
 30
-45.92752524039
 40
158.4492423878
210
0.0
220
-1.0
230
0.0
100
AcDbArc
 50
180.0
 51
0.0
  0
SPLINE
  5
170
330
15F
100
AcDbEntity
  8
Layer 01
100
AcDbSpline
210
0.0
220
0.0
230
1.0
 70
    24
 71
     2
 72
     6
 73
     3
 74
     0
 42
0.000000001
 43
0.0000000001
 40
0.0
 40
0.0
 40
0.0
 40
46.36809247748489
 40
46.36809247748489
 40
46.36809247748489
 10
158.4492423878
 20
45.92752524039
 30
-0.0000000000000176
 10
160.97909980675
 20
22.8819221578076
 30
-0.0000000000000088
 10
163.5089572257
 20
-0.1636809247748
 30
0.0
  0
ARC
  5
171
330
15F
100
AcDbEntity
  8
Layer 01
100
AcDbCircle
 10
0.0000000000000142
 20
0.0
 30
-45.92752524039
 40
158.4492423878
210
0.0
220
-1.0
230
0.0
100
AcDbArc
 50
0.000000000000007
 51
180.0
  0
ARC
  5
172
330
15F
100
AcDbEntity
  8
Layer 01
100
AcDbCircle
 10
150.0
 20
45.00000000004243
 30
-0.0000000000000138
 40
8.499999999957573
100
AcDbArc
 50
6.264625458361719
 51
90.0
  0
ARC
  5
173
330
15F
100
AcDbEntity
  8
Layer 01
100
AcDbCircle
 10
0.0
 20
0.0
 30
-53.5
 40
150.0
210
0.0
220
-1.0
230
0.0
100
AcDbArc
 50
0.000000000000007
 51
180.0
  0
ARC
  5
174
330
15F
100
AcDbEntity
  8
Layer 01
100
AcDbCircle
 10
-150.0
 20
45.00000000004244
 30
0.0
 40
8.49999999995756
100
AcDbArc
 50
90.0
 51
173.7353745416384
  0
ARC
  5
175
330
15F
100
AcDbEntity
  8
Layer 01
100
AcDbCircle
 10
0.0
 20
0.0
 30
-53.5
 40
150.0
210
0.0
220
-1.0
230
0.0
100
AcDbArc
 50
180.0
 51
0.0
  0
ARC
  5
176
330
15F
100
AcDbEntity
  8
Layer 01
100
AcDbCircle
 10
145.0
 20
0.0
 30
55.0
 40
1.3
210
0.0
220
1.0
230
0.0
100
AcDbArc
 50
0.000000000000007
 51
180.0
  0
SPLINE
  5
177
330
15F
100
AcDbEntity
  8
Layer 01
100
AcDbSpline
210
0.0
220
0.0
230
1.0
 70
    24
 71
     2
 72
     6
 73
     3
 74
     0
 42
0.000000001
 43
0.0000000001
 40
0.0
 40
0.0
 40
0.0
 40
1.5
 40
1.5
 40
1.5
 10
-146.3
 20
55.0
 30
0.0
 10
-146.3
 20
54.25
 30
0.0
 10
-146.3
 20
53.5
 30
0.0
  0
ARC
  5
178
330
15F
100
AcDbEntity
  8
Layer 01
100
AcDbCircle
 10
145.0
 20
0.0
 30
53.5
 40
1.3
210
0.0
220
1.0
230
0.0
100
AcDbArc
 50
0.000000000000007
 51
180.0
  0
SPLINE
  5
179
330
15F
100
AcDbEntity
  8
Layer 01
100
AcDbSpline
210
0.0
220
0.0
230
1.0
 70
    24
 71
     2
 72
     6
 73
     3
 74
     0
 42
0.000000001
 43
0.0000000001
 40
0.0
 40
0.0
 40
0.0
 40
1.5
 40
1.5
 40
1.5
 10
-143.7
 20
53.5
 30
0.0
 10
-143.7
 20
54.25
 30
0.0
 10
-143.7
 20
55.0
 30
0.0
  0
ARC
  5
17A
330
15F
100
AcDbEntity
  8
Layer 01
100
AcDbCircle
 10
145.0
 20
0.0
 30
55.0
 40
1.3
210
0.0
220
1.0
230
0.0
100
AcDbArc
 50
180.0
 51
0.0
  0
ARC
  5
17B
330
15F
100
AcDbEntity
  8
Layer 01
100
AcDbCircle
 10
145.0
 20
0.0
 30
53.5
 40
1.3
210
0.0
220
1.0
230
0.0
100
AcDbArc
 50
180.0
 51
0.0
  0
ARC
  5
17C
330
15F
100
AcDbEntity
  8
Layer 01
100
AcDbCircle
 10
144.2056748284
 20
-15.15662717381
 30
55.0
 40
1.300000000000011
210
0.0
220
1.0
230
0.0
100
AcDbArc
 50
0.0000000000000783
 51
180.0
  0
SPLINE
  5
17D
330
15F
100
AcDbEntity
  8
Layer 01
100
AcDbSpline
210
0.0
220
0.0
230
1.0
 70
    24
 71
     2
 72
     6
 73
     3
 74
     0
 42
0.000000001
 43
0.0000000001
 40
0.0
 40
0.0
 40
0.0
 40
1.5
 40
1.5
 40
1.5
 10
-145.5056748284
 20
55.0
 30
-15.15662717381
 10
-145.5056748284
 20
54.25
 30
-15.15662717381
 10
-145.5056748284
 20
53.5
 30
-15.15662717381
  0
ARC
  5
17E
330
15F
100
AcDbEntity
  8
Layer 01
100
AcDbCircle
 10
144.2056748284
 20
-15.15662717381
 30
53.5
 40
1.300000000000011
210
0.0
220
1.0
230
0.0
100
AcDbArc
 50
0.0000000000000783
 51
180.0
  0
SPLINE
  5
17F
330
15F
100
AcDbEntity
  8
Layer 01
100
AcDbSpline
210
0.0
220
0.0
230
1.0
 70
    24
 71
     2
 72
     6
 73
     3
 74
     0
 42
0.000000001
 43
0.0000000001
 40
0.0
 40
0.0
 40
0.0
 40
1.5
 40
1.5
 40
1.5
 10
-142.9056748284
 20
53.5
 30
-15.15662717381
 10
-142.9056748284
 20
54.25
 30
-15.15662717381
 10
-142.9056748284
 20
55.0
 30
-15.15662717381
  0
ARC
  5
180
330
15F
100
AcDbEntity
  8
Layer 01
100
AcDbCircle
 10
144.2056748284
 20
-15.15662717381
 30
55.0
 40
1.300000000000011
210
0.0
220
1.0
230
0.0
100
AcDbArc
 50
179.9999999999999
 51
0.0
  0
ARC
  5
181
330
15F
100
AcDbEntity
  8
Layer 01
100
AcDbCircle
 10
144.2056748284
 20
-15.15662717381
 30
53.5
 40
1.300000000000011
210
0.0
220
1.0
230
0.0
100
AcDbArc
 50
179.9999999999999
 51
0.0
  0
ARC
  5
182
330
15F
100
AcDbEntity
  8
Layer 01
100
AcDbCircle
 10
-72.50000000002164
 20
-125.5736835487375
 30
55.0
 40
1.300000000026211
210
0.0
220
1.0
230
0.0
100
AcDbArc
 50
240.0000000017682
 51
59.99999999956376
  0
SPLINE
  5
183
330
15F
100
AcDbEntity
  8
Layer 01
100
AcDbSpline
210
0.0
220
0.0
230
1.0
 70
    24
 71
     2
 72
     6
 73
     3
 74
     0
 42
0.000000001
 43
0.0000000001
 40
0.0
 40
0.0
 40
0.0
 40
1.5
 40
1.5
 40
1.5
 10
73.15
 20
55.0
 30
-126.6995165737
 10
73.15
 20
54.25
 30
-126.6995165737
 10
73.15
 20
53.5
 30
-126.6995165737
  0
ARC
  5
184
330
15F
100
AcDbEntity
  8
Layer 01
100
AcDbCircle
 10
-72.50000000002164
 20
-125.5736835487375
 30
53.5
 40
1.300000000026211
210
0.0
220
1.0
230
0.0
100
AcDbArc
 50
240.0000000017682
 51
59.99999999956376
  0
SPLINE
  5
185
330
15F
100
AcDbEntity
  8
Layer 01
100
AcDbSpline
210
0.0
220
0.0
230
1.0
 70
    24
 71
     2
 72
     6
 73
     3
 74
     0
 42
0.000000001
 43
0.0000000001
 40
0.0
 40
0.0
 40
0.0
 40
1.5
 40
1.5
 40
1.5
 10
71.85
 20
53.5
 30
-124.4478505238
 10
71.85
 20
54.25
 30
-124.4478505238
 10
71.85
 20
55.0
 30
-124.4478505238
  0
ARC
  5
186
330
15F
100
AcDbEntity
  8
Layer 01
100
AcDbCircle
 10
-72.50000000002164
 20
-125.5736835487375
 30
55.0
 40
1.300000000026189
210
0.0
220
1.0
230
0.0
100
AcDbArc
 50
59.99999999956454
 51
240.0000000017676
  0
ARC
  5
187
330
15F
100
AcDbEntity
  8
Layer 01
100
AcDbCircle
 10
-72.50000000002164
 20
-125.5736835487375
 30
53.5
 40
1.300000000026189
210
0.0
220
1.0
230
0.0
100
AcDbArc
 50
59.99999999956454
 51
240.0000000017676
  0
ARC
  5
188
330
15F
100
AcDbEntity
  8
Layer 01
100
AcDbCircle
 10
-85.22886158238835
 20
-117.3074641843625
 30
55.0
 40
1.300000000026209
210
0.0
220
1.0
230
0.0
100
AcDbArc
 50
239.9999999995651
 51
60.00000000176735
  0
SPLINE
  5
189
330
15F
100
AcDbEntity
  8
Layer 01
100
AcDbSpline
210
0.0
220
0.0
230
1.0
 70
    24
 71
     2
 72
     6
 73
     3
 74
     0
 42
0.000000001
 43
0.0000000001
 40
0.0
 40
0.0
 40
0.0
 40
1.5
 40
1.5
 40
1.5
 10
85.87886158241
 20
55.0
 30
-118.4332972093
 10
85.87886158241
 20
54.25
 30
-118.4332972093
 10
85.87886158241
 20
53.5
 30
-118.4332972093
  0
ARC
  5
18A
330
15F
100
AcDbEntity
  8
Layer 01
100
AcDbCircle
 10
-85.22886158238835
 20
-117.3074641843625
 30
53.5
 40
1.300000000026209
210
0.0
220
1.0
230
0.0
100
AcDbArc
 50
239.9999999995651
 51
60.00000000176735
  0
SPLINE
  5
18B
330
15F
100
AcDbEntity
  8
Layer 01
100
AcDbSpline
210
0.0
220
0.0
230
1.0
 70
    24
 71
     2
 72
     6
 73
     3
 74
     0
 42
0.000000001
 43
0.0000000001
 40
0.0
 40
0.0
 40
0.0
 40
1.5
 40
1.5
 40
1.5
 10
84.57886158240998
 20
53.5
 30
-116.1816311594
 10
84.57886158240998
 20
54.25
 30
-116.1816311594
 10
84.57886158240998
 20
55.0
 30
-116.1816311594
  0
ARC
  5
18C
330
15F
100
AcDbEntity
  8
Layer 01
100
AcDbCircle
 10
-85.22886158238835
 20
-117.3074641843625
 30
55.0
 40
1.300000000026216
210
0.0
220
1.0
230
0.0
100
AcDbArc
 50
60.00000000176767
 51
239.9999999995646
  0
ARC
  5
18D
330
15F
100
AcDbEntity
  8
Layer 01
100
AcDbCircle
 10
-85.22886158238835
 20
-117.3074641843625
 30
53.5
 40
1.300000000026216
210
0.0
220
1.0
230
0.0
100
AcDbArc
 50
60.00000000176767
 51
239.9999999995646
  0
ARC
  5
18E
330
15F
100
AcDbEntity
  8
Layer 01
100
AcDbCircle
 10
-72.50000000002164
 20
125.5736835487375
 30
55.0
 40
1.300000000026209
210
0.0
220
1.0
230
0.0
100
AcDbArc
 50
119.9999999982332
 51
300.0000000004349
  0
SPLINE
  5
18F
330
15F
100
AcDbEntity
  8
Layer 01
100
AcDbSpline
210
0.0
220
0.0
230
1.0
 70
    24
 71
     2
 72
     6
 73
     3
 74
     0
 42
0.000000001
 43
0.0000000001
 40
0.0
 40
0.0
 40
0.0
 40
1.5
 40
1.5
 40
1.5
 10
73.15
 20
55.0
 30
126.6995165737
 10
73.15
 20
54.25
 30
126.6995165737
 10
73.15
 20
53.5
 30
126.6995165737
  0
ARC
  5
190
330
15F
100
AcDbEntity
  8
Layer 01
100
AcDbCircle
 10
-72.50000000002164
 20
125.5736835487375
 30
53.5
 40
1.300000000026209
210
0.0
220
1.0
230
0.0
100
AcDbArc
 50
119.9999999982332
 51
300.0000000004349
  0
ARC
  5
191
330
15F
100
AcDbEntity
  8
Layer 01
100
AcDbCircle
 10
-72.50000000002166
 20
125.5736835487375
 30
55.0
 40
1.300000000026202
210
0.0
220
1.0
230
0.0
100
AcDbArc
 50
300.0000000004356
 51
119.9999999982321
  0
SPLINE
  5
192
330
15F
100
AcDbEntity
  8
Layer 01
100
AcDbSpline
210
0.0
220
0.0
230
1.0
 70
    24
 71
     2
 72
     6
 73
     3
 74
     0
 42
0.000000001
 43
0.0000000001
 40
0.0
 40
0.0
 40
0.0
 40
1.5
 40
1.5
 40
1.5
 10
71.85
 20
55.0
 30
124.4478505238
 10
71.85
 20
54.25
 30
124.4478505238
 10
71.85
 20
53.5
 30
124.4478505238
  0
ARC
  5
193
330
15F
100
AcDbEntity
  8
Layer 01
100
AcDbCircle
 10
-72.50000000002166
 20
125.5736835487375
 30
53.5
 40
1.300000000026202
210
0.0
220
1.0
230
0.0
100
AcDbArc
 50
300.0000000004356
 51
119.9999999982321
  0
ARC
  5
194
330
15F
100
AcDbEntity
  8
Layer 01
100
AcDbCircle
 10
-58.97681324598998
 20
132.4640913581999
 30
55.0
 40
1.299999999982885
210
0.0
220
1.0
230
0.0
100
AcDbArc
 50
120.0000000004355
 51
300.0000000004358
  0
ARC
  5
195
330
15F
100
AcDbEntity
  8
Layer 01
100
AcDbCircle
 10
-58.97681324598998
 20
132.4640913581999
 30
53.5
 40
1.299999999982885
210
0.0
220
1.0
230
0.0
100
AcDbArc
 50
120.0000000004355
 51
300.0000000004358
  0
SPLINE
  5
196
330
15F
100
AcDbEntity
  8
Layer 01
100
AcDbSpline
210
0.0
220
0.0
230
1.0
 70
    24
 71
     2
 72
     6
 73
     3
 74
     0
 42
0.000000001
 43
0.0000000001
 40
0.0
 40
0.0
 40
0.0
 40
1.5
 40
1.5
 40
1.5
 10
58.32681324599
 20
53.5
 30
131.3382583333
 10
58.32681324599
 20
54.25
 30
131.3382583333
 10
58.32681324599
 20
55.0
 30
131.3382583333
  0
ARC
  5
197
330
15F
100
AcDbEntity
  8
Layer 01
100
AcDbCircle
 10
-58.97681324598998
 20
132.4640913581999
 30
55.0
 40
1.299999999982902
210
0.0
220
1.0
230
0.0
100
AcDbArc
 50
300.0000000004363
 51
120.0000000004346
  0
ARC
  5
198
330
15F
100
AcDbEntity
  8
Layer 01
100
AcDbCircle
 10
-58.97681324598998
 20
132.4640913581999
 30
53.5
 40
1.299999999982902
210
0.0
220
1.0
230
0.0
100
AcDbArc
 50
300.0000000004363
 51
120.0000000004346
  0
SPLINE
  5
199
330
15F
100
AcDbEntity
  8
Layer 01
100
AcDbSpline
210
0.0
220
0.0
230
1.0
 70
    24
 71
     2
 72
     6
 73
     3
 74
     0
 42
0.000000001
 43
0.0000000001
 40
0.0
 40
0.0
 40
0.0
 40
1.5
 40
1.5
 40
1.5
 10
59.62681324598999
 20
53.5
 30
133.5899243831
 10
59.62681324598999
 20
54.25
 30
133.5899243831
 10
59.62681324598999
 20
55.0
 30
133.5899243831
  0
ARC
  5
19A
330
15F
100
AcDbEntity
  8
Layer 01
100
AcDbCircle
 10
2.0
 20
-60.0
 30
55.0
 40
1.3
210
0.0
220
1.0
230
0.0
100
AcDbArc
 50
0.0
 51
180.0
  0
SPLINE
  5
19B
330
15F
100
AcDbEntity
  8
Layer 01
100
AcDbSpline
210
0.0
220
0.0
230
1.0
 70
    24
 71
     2
 72
     6
 73
     3
 74
     0
 42
0.000000001
 43
0.0000000001
 40
0.0
 40
0.0
 40
0.0
 40
1.5
 40
1.5
 40
1.5
 10
-3.299999999999999
 20
55.0
 30
-60.0
 10
-3.299999999999999
 20
54.25
 30
-60.0
 10
-3.299999999999999
 20
53.5
 30
-60.0
  0
ARC
  5
19C
330
15F
100
AcDbEntity
  8
Layer 01
100
AcDbCircle
 10
2.0
 20
-60.0
 30
53.5
 40
1.3
210
0.0
220
1.0
230
0.0
100
AcDbArc
 50
0.0
 51
180.0
  0
SPLINE
  5
19D
330
15F
100
AcDbEntity
  8
Layer 01
100
AcDbSpline
210
0.0
220
0.0
230
1.0
 70
    24
 71
     2
 72
     6
 73
     3
 74
     0
 42
0.000000001
 43
0.0000000001
 40
0.0
 40
0.0
 40
0.0
 40
1.5
 40
1.5
 40
1.5
 10
-0.6999999999999998
 20
53.5
 30
-60.0
 10
-0.6999999999999998
 20
54.25
 30
-60.0
 10
-0.6999999999999998
 20
55.0
 30
-60.0
  0
ARC
  5
19E
330
15F
100
AcDbEntity
  8
Layer 01
100
AcDbCircle
 10
2.0
 20
-60.0
 30
55.0
 40
1.3
210
0.0
220
1.0
230
0.0
100
AcDbArc
 50
180.0
 51
0.0
  0
ARC
  5
19F
330
15F
100
AcDbEntity
  8
Layer 01
100
AcDbCircle
 10
2.0
 20
-60.0
 30
53.5
 40
1.3
210
0.0
220
1.0
230
0.0
100
AcDbArc
 50
180.0
 51
0.0
  0
ARC
  5
1A0
330
15F
100
AcDbEntity
  8
Layer 01
100
AcDbCircle
 10
-28.0
 20
-60.0
 30
55.0
 40
1.300000000000001
210
0.0
220
1.0
230
0.0
100
AcDbArc
 50
0.0
 51
180.0
  0
SPLINE
  5
1A1
330
15F
100
AcDbEntity
  8
Layer 01
100
AcDbSpline
210
0.0
220
0.0
230
1.0
 70
    24
 71
     2
 72
     6
 73
     3
 74
     0
 42
0.000000001
 43
0.0000000001
 40
0.0
 40
0.0
 40
0.0
 40
1.5
 40
1.5
 40
1.5
 10
26.7
 20
55.0
 30
-60.0
 10
26.7
 20
54.25
 30
-60.0
 10
26.7
 20
53.5
 30
-60.0
  0
ARC
  5
1A2
330
15F
100
AcDbEntity
  8
Layer 01
100
AcDbCircle
 10
-28.0
 20
-60.0
 30
53.5
 40
1.300000000000001
210
0.0
220
1.0
230
0.0
100
AcDbArc
 50
0.0
 51
180.0
  0
SPLINE
  5
1A3
330
15F
100
AcDbEntity
  8
Layer 01
100
AcDbSpline
210
0.0
220
0.0
230
1.0
 70
    24
 71
     2
 72
     6
 73
     3
 74
     0
 42
0.000000001
 43
0.0000000001
 40
0.0
 40
0.0
 40
0.0
 40
1.5
 40
1.5
 40
1.5
 10
29.3
 20
53.5
 30
-60.0
 10
29.3
 20
54.25
 30
-60.0
 10
29.3
 20
55.0
 30
-60.0
  0
ARC
  5
1A4
330
15F
100
AcDbEntity
  8
Layer 01
100
AcDbCircle
 10
-28.0
 20
-60.0
 30
55.0
 40
1.3
210
0.0
220
1.0
230
0.0
100
AcDbArc
 50
180.0
 51
0.0
  0
ARC
  5
1A5
330
15F
100
AcDbEntity
  8
Layer 01
100
AcDbCircle
 10
-28.0
 20
-60.0
 30
53.5
 40
1.3
210
0.0
220
1.0
230
0.0
100
AcDbArc
 50
180.0
 51
0.0
  0
ARC
  5
1A6
330
15F
100
AcDbEntity
  8
Layer 01
100
AcDbCircle
 10
2.0
 20
60.0
 30
55.0
 40
1.3
210
0.0
220
1.0
230
0.0
100
AcDbArc
 50
0.0
 51
180.0
  0
SPLINE
  5
1A7
330
15F
100
AcDbEntity
  8
Layer 01
100
AcDbSpline
210
0.0
220
0.0
230
1.0
 70
    24
 71
     2
 72
     6
 73
     3
 74
     0
 42
0.000000001
 43
0.0000000001
 40
0.0
 40
0.0
 40
0.0
 40
1.5
 40
1.5
 40
1.5
 10
-3.299999999999999
 20
55.0
 30
60.0
 10
-3.299999999999999
 20
54.25
 30
60.0
 10
-3.299999999999999
 20
53.5
 30
60.0
  0
ARC
  5
1A8
330
15F
100
AcDbEntity
  8
Layer 01
100
AcDbCircle
 10
2.0
 20
60.0
 30
53.5
 40
1.3
210
0.0
220
1.0
230
0.0
100
AcDbArc
 50
0.0
 51
180.0
  0
SPLINE
  5
1A9
330
15F
100
AcDbEntity
  8
Layer 01
100
AcDbSpline
210
0.0
220
0.0
230
1.0
 70
    24
 71
     2
 72
     6
 73
     3
 74
     0
 42
0.000000001
 43
0.0000000001
 40
0.0
 40
0.0
 40
0.0
 40
1.5
 40
1.5
 40
1.5
 10
-0.6999999999999998
 20
53.5
 30
60.0
 10
-0.6999999999999998
 20
54.25
 30
60.0
 10
-0.6999999999999998
 20
55.0
 30
60.0
  0
ARC
  5
1AA
330
15F
100
AcDbEntity
  8
Layer 01
100
AcDbCircle
 10
2.0
 20
60.0
 30
55.0
 40
1.3
210
0.0
220
1.0
230
0.0
100
AcDbArc
 50
180.0
 51
0.0
  0
ARC
  5
1AB
330
15F
100
AcDbEntity
  8
Layer 01
100
AcDbCircle
 10
2.0
 20
60.0
 30
53.5
 40
1.3
210
0.0
220
1.0
230
0.0
100
AcDbArc
 50
180.0
 51
0.0
  0
ARC
  5
1AC
330
15F
100
AcDbEntity
  8
Layer 01
100
AcDbCircle
 10
8.0
 20
100.0
 30
55.0
 40
1.3
210
0.0
220
1.0
230
0.0
100
AcDbArc
 50
0.0
 51
180.0
  0
SPLINE
  5
1AD
330
15F
100
AcDbEntity
  8
Layer 01
100
AcDbSpline
210
0.0
220
0.0
230
1.0
 70
    24
 71
     2
 72
     6
 73
     3
 74
     0
 42
0.000000001
 43
0.0000000001
 40
0.0
 40
0.0
 40
0.0
 40
1.5
 40
1.5
 40
1.5
 10
-9.3
 20
55.0
 30
100.0
 10
-9.3
 20
54.25
 30
100.0
 10
-9.3
 20
53.5
 30
100.0
  0
ARC
  5
1AE
330
15F
100
AcDbEntity
  8
Layer 01
100
AcDbCircle
 10
8.0
 20
100.0
 30
53.5
 40
1.3
210
0.0
220
1.0
230
0.0
100
AcDbArc
 50
0.0
 51
180.0
  0
SPLINE
  5
1AF
330
15F
100
AcDbEntity
  8
Layer 01
100
AcDbSpline
210
0.0
220
0.0
230
1.0
 70
    24
 71
     2
 72
     6
 73
     3
 74
     0
 42
0.000000001
 43
0.0000000001
 40
0.0
 40
0.0
 40
0.0
 40
1.5
 40
1.5
 40
1.5
 10
-6.7
 20
53.5
 30
100.0
 10
-6.7
 20
54.25
 30
100.0
 10
-6.7
 20
55.0
 30
100.0
  0
ARC
  5
1B0
330
15F
100
AcDbEntity
  8
Layer 01
100
AcDbCircle
 10
8.0
 20
100.0
 30
55.0
 40
1.3
210
0.0
220
1.0
230
0.0
100
AcDbArc
 50
180.0
 51
0.0
  0
ARC
  5
1B1
330
15F
100
AcDbEntity
  8
Layer 01
100
AcDbCircle
 10
8.0
 20
100.0
 30
53.5
 40
1.3
210
0.0
220
1.0
230
0.0
100
AcDbArc
 50
180.0
 51
0.0
  0
ARC
  5
1B2
330
15F
100
AcDbEntity
  8
Layer 01
100
AcDbCircle
 10
-8.0
 20
100.0
 30
55.0
 40
1.3
210
0.0
220
1.0
230
0.0
100
AcDbArc
 50
0.0
 51
180.0
  0
SPLINE
  5
1B3
330
15F
100
AcDbEntity
  8
Layer 01
100
AcDbSpline
210
0.0
220
0.0
230
1.0
 70
    24
 71
     2
 72
     6
 73
     3
 74
     0
 42
0.000000001
 43
0.0000000001
 40
0.0
 40
0.0
 40
0.0
 40
1.5
 40
1.5
 40
1.5
 10
6.7
 20
55.0
 30
100.0
 10
6.7
 20
54.25
 30
100.0
 10
6.7
 20
53.5
 30
100.0
  0
ARC
  5
1B4
330
15F
100
AcDbEntity
  8
Layer 01
100
AcDbCircle
 10
-8.0
 20
100.0
 30
53.5
 40
1.3
210
0.0
220
1.0
230
0.0
100
AcDbArc
 50
0.0
 51
180.0
  0
SPLINE
  5
1B5
330
15F
100
AcDbEntity
  8
Layer 01
100
AcDbSpline
210
0.0
220
0.0
230
1.0
 70
    24
 71
     2
 72
     6
 73
     3
 74
     0
 42
0.000000001
 43
0.0000000001
 40
0.0
 40
0.0
 40
0.0
 40
1.5
 40
1.5
 40
1.5
 10
9.3
 20
53.5
 30
100.0
 10
9.3
 20
54.25
 30
100.0
 10
9.3
 20
55.0
 30
100.0
  0
ARC
  5
1B6
330
15F
100
AcDbEntity
  8
Layer 01
100
AcDbCircle
 10
-8.0
 20
100.0
 30
55.0
 40
1.3
210
0.0
220
1.0
230
0.0
100
AcDbArc
 50
180.0
 51
0.0
  0
ARC
  5
1B7
330
15F
100
AcDbEntity
  8
Layer 01
100
AcDbCircle
 10
-8.0
 20
100.0
 30
53.5
 40
1.3
210
0.0
220
1.0
230
0.0
100
AcDbArc
 50
180.0
 51
0.0
  0
ARC
  5
1B8
330
15F
100
AcDbEntity
  8
Layer 01
100
AcDbCircle
 10
17.5
 20
135.0
 30
55.0
 40
1.3
210
0.0
220
1.0
230
0.0
100
AcDbArc
 50
0.0
 51
180.0
  0
SPLINE
  5
1B9
330
15F
100
AcDbEntity
  8
Layer 01
100
AcDbSpline
210
0.0
220
0.0
230
1.0
 70
    24
 71
     2
 72
     6
 73
     3
 74
     0
 42
0.000000001
 43
0.0000000001
 40
0.0
 40
0.0
 40
0.0
 40
1.5
 40
1.5
 40
1.5
 10
-18.8
 20
55.0
 30
135.0
 10
-18.8
 20
54.25
 30
135.0
 10
-18.8
 20
53.5
 30
135.0
  0
ARC
  5
1BA
330
15F
100
AcDbEntity
  8
Layer 01
100
AcDbCircle
 10
17.5
 20
135.0
 30
53.5
 40
1.3
210
0.0
220
1.0
230
0.0
100
AcDbArc
 50
0.0
 51
180.0
  0
SPLINE
  5
1BB
330
15F
100
AcDbEntity
  8
Layer 01
100
AcDbSpline
210
0.0
220
0.0
230
1.0
 70
    24
 71
     2
 72
     6
 73
     3
 74
     0
 42
0.000000001
 43
0.0000000001
 40
0.0
 40
0.0
 40
0.0
 40
1.5
 40
1.5
 40
1.5
 10
-16.2
 20
53.5
 30
135.0
 10
-16.2
 20
54.25
 30
135.0
 10
-16.2
 20
55.0
 30
135.0
  0
ARC
  5
1BC
330
15F
100
AcDbEntity
  8
Layer 01
100
AcDbCircle
 10
17.5
 20
135.0
 30
55.0
 40
1.300000000000001
210
0.0
220
1.0
230
0.0
100
AcDbArc
 50
180.0
 51
0.0
  0
ARC
  5
1BD
330
15F
100
AcDbEntity
  8
Layer 01
100
AcDbCircle
 10
17.5
 20
135.0
 30
53.5
 40
1.300000000000001
210
0.0
220
1.0
230
0.0
100
AcDbArc
 50
180.0
 51
0.0
  0
ARC
  5
1BE
330
15F
100
AcDbEntity
  8
Layer 01
100
AcDbCircle
 10
51.5
 20
-136.0
 30
55.0
 40
1.299999999999997
210
0.0
220
1.0
230
0.0
100
AcDbArc
 50
0.0
 51
180.0
  0
SPLINE
  5
1BF
330
15F
100
AcDbEntity
  8
Layer 01
100
AcDbSpline
210
0.0
220
0.0
230
1.0
 70
    24
 71
     2
 72
     6
 73
     3
 74
     0
 42
0.000000001
 43
0.0000000001
 40
0.0
 40
0.0
 40
0.0
 40
1.5
 40
1.5
 40
1.5
 10
-52.79999999999999
 20
55.0
 30
-136.0
 10
-52.79999999999999
 20
54.25
 30
-136.0
 10
-52.79999999999999
 20
53.5
 30
-136.0
  0
ARC
  5
1C0
330
15F
100
AcDbEntity
  8
Layer 01
100
AcDbCircle
 10
51.5
 20
-136.0
 30
53.5
 40
1.299999999999997
210
0.0
220
1.0
230
0.0
100
AcDbArc
 50
0.0
 51
180.0
  0
SPLINE
  5
1C1
330
15F
100
AcDbEntity
  8
Layer 01
100
AcDbSpline
210
0.0
220
0.0
230
1.0
 70
    24
 71
     2
 72
     6
 73
     3
 74
     0
 42
0.000000001
 43
0.0000000001
 40
0.0
 40
0.0
 40
0.0
 40
1.5
 40
1.5
 40
1.5
 10
-50.2
 20
53.5
 30
-136.0
 10
-50.2
 20
54.25
 30
-136.0
 10
-50.2
 20
55.0
 30
-136.0
  0
ARC
  5
1C2
330
15F
100
AcDbEntity
  8
Layer 01
100
AcDbCircle
 10
51.5
 20
-136.0
 30
55.0
 40
1.3
210
0.0
220
1.0
230
0.0
100
AcDbArc
 50
180.0
 51
0.0
  0
ARC
  5
1C3
330
15F
100
AcDbEntity
  8
Layer 01
100
AcDbCircle
 10
51.5
 20
-136.0
 30
53.5
 40
1.3
210
0.0
220
1.0
230
0.0
100
AcDbArc
 50
180.0
 51
0.0
  0
ARC
  5
1C4
330
15F
100
AcDbEntity
  8
Layer 01
100
AcDbCircle
 10
7.0
 20
-82.0
 30
55.0
 40
1.3
210
0.0
220
1.0
230
0.0
100
AcDbArc
 50
0.0
 51
180.0
  0
SPLINE
  5
1C5
330
15F
100
AcDbEntity
  8
Layer 01
100
AcDbSpline
210
0.0
220
0.0
230
1.0
 70
    24
 71
     2
 72
     6
 73
     3
 74
     0
 42
0.000000001
 43
0.0000000001
 40
0.0
 40
0.0
 40
0.0
 40
1.5
 40
1.5
 40
1.5
 10
-8.3
 20
55.0
 30
-82.0
 10
-8.3
 20
54.25
 30
-82.0
 10
-8.3
 20
53.5
 30
-82.0
  0
ARC
  5
1C6
330
15F
100
AcDbEntity
  8
Layer 01
100
AcDbCircle
 10
7.0
 20
-82.0
 30
53.5
 40
1.3
210
0.0
220
1.0
230
0.0
100
AcDbArc
 50
0.0
 51
180.0
  0
SPLINE
  5
1C7
330
15F
100
AcDbEntity
  8
Layer 01
100
AcDbSpline
210
0.0
220
0.0
230
1.0
 70
    24
 71
     2
 72
     6
 73
     3
 74
     0
 42
0.000000001
 43
0.0000000001
 40
0.0
 40
0.0
 40
0.0
 40
1.5
 40
1.5
 40
1.5
 10
-5.7
 20
53.5
 30
-82.0
 10
-5.7
 20
54.25
 30
-82.0
 10
-5.7
 20
55.0
 30
-82.0
  0
ARC
  5
1C8
330
15F
100
AcDbEntity
  8
Layer 01
100
AcDbCircle
 10
7.0
 20
-82.0
 30
55.0
 40
1.3
210
0.0
220
1.0
230
0.0
100
AcDbArc
 50
180.0
 51
0.0
  0
ARC
  5
1C9
330
15F
100
AcDbEntity
  8
Layer 01
100
AcDbCircle
 10
7.0
 20
-82.0
 30
53.5
 40
1.3
210
0.0
220
1.0
230
0.0
100
AcDbArc
 50
180.0
 51
0.0
  0
ARC
  5
1CA
330
15F
100
AcDbEntity
  8
Layer 01
100
AcDbCircle
 10
17.5
 20
121.0
 30
55.0
 40
1.3
210
0.0
220
1.0
230
0.0
100
AcDbArc
 50
0.0
 51
180.0
  0
SPLINE
  5
1CB
330
15F
100
AcDbEntity
  8
Layer 01
100
AcDbSpline
210
0.0
220
0.0
230
1.0
 70
    24
 71
     2
 72
     6
 73
     3
 74
     0
 42
0.000000001
 43
0.0000000001
 40
0.0
 40
0.0
 40
0.0
 40
1.5
 40
1.5
 40
1.5
 10
-18.8
 20
55.0
 30
121.0
 10
-18.8
 20
54.25
 30
121.0
 10
-18.8
 20
53.5
 30
121.0
  0
ARC
  5
1CC
330
15F
100
AcDbEntity
  8
Layer 01
100
AcDbCircle
 10
17.5
 20
121.0
 30
53.5
 40
1.3
210
0.0
220
1.0
230
0.0
100
AcDbArc
 50
0.0
 51
180.0
  0
SPLINE
  5
1CD
330
15F
100
AcDbEntity
  8
Layer 01
100
AcDbSpline
210
0.0
220
0.0
230
1.0
 70
    24
 71
     2
 72
     6
 73
     3
 74
     0
 42
0.000000001
 43
0.0000000001
 40
0.0
 40
0.0
 40
0.0
 40
1.5
 40
1.5
 40
1.5
 10
-16.2
 20
53.5
 30
121.0
 10
-16.2
 20
54.25
 30
121.0
 10
-16.2
 20
55.0
 30
121.0
  0
ARC
  5
1CE
330
15F
100
AcDbEntity
  8
Layer 01
100
AcDbCircle
 10
17.5
 20
121.0
 30
55.0
 40
1.300000000000001
210
0.0
220
1.0
230
0.0
100
AcDbArc
 50
180.0
 51
0.0
  0
ARC
  5
1CF
330
15F
100
AcDbEntity
  8
Layer 01
100
AcDbCircle
 10
17.5
 20
121.0
 30
53.5
 40
1.300000000000001
210
0.0
220
1.0
230
0.0
100
AcDbArc
 50
180.0
 51
0.0
  0
ARC
  5
1D0
330
15F
100
AcDbEntity
  8
Layer 01
100
AcDbCircle
 10
51.5
 20
-120.0
 30
55.0
 40
1.299999999999997
210
0.0
220
1.0
230
0.0
100
AcDbArc
 50
0.0
 51
180.0
  0
SPLINE
  5
1D1
330
15F
100
AcDbEntity
  8
Layer 01
100
AcDbSpline
210
0.0
220
0.0
230
1.0
 70
    24
 71
     2
 72
     6
 73
     3
 74
     0
 42
0.000000001
 43
0.0000000001
 40
0.0
 40
0.0
 40
0.0
 40
1.5
 40
1.5
 40
1.5
 10
-52.79999999999999
 20
55.0
 30
-120.0
 10
-52.79999999999999
 20
54.25
 30
-120.0
 10
-52.79999999999999
 20
53.5
 30
-120.0
  0
ARC
  5
1D2
330
15F
100
AcDbEntity
  8
Layer 01
100
AcDbCircle
 10
51.5
 20
-120.0
 30
53.5
 40
1.299999999999997
210
0.0
220
1.0
230
0.0
100
AcDbArc
 50
0.0
 51
180.0
  0
SPLINE
  5
1D3
330
15F
100
AcDbEntity
  8
Layer 01
100
AcDbSpline
210
0.0
220
0.0
230
1.0
 70
    24
 71
     2
 72
     6
 73
     3
 74
     0
 42
0.000000001
 43
0.0000000001
 40
0.0
 40
0.0
 40
0.0
 40
1.5
 40
1.5
 40
1.5
 10
-50.2
 20
53.5
 30
-120.0
 10
-50.2
 20
54.25
 30
-120.0
 10
-50.2
 20
55.0
 30
-120.0
  0
ARC
  5
1D4
330
15F
100
AcDbEntity
  8
Layer 01
100
AcDbCircle
 10
51.5
 20
-120.0
 30
55.0
 40
1.3
210
0.0
220
1.0
230
0.0
100
AcDbArc
 50
180.0
 51
0.0
  0
ARC
  5
1D5
330
15F
100
AcDbEntity
  8
Layer 01
100
AcDbCircle
 10
51.5
 20
-120.0
 30
53.5
 40
1.3
210
0.0
220
1.0
230
0.0
100
AcDbArc
 50
180.0
 51
0.0
  0
ARC
  5
1D6
330
15F
100
AcDbEntity
  8
Layer 01
100
AcDbCircle
 10
0.0
 20
0.0
 30
55.0
 40
7.5
210
0.0
220
1.0
230
0.0
100
AcDbArc
 50
270.0
 51
90.0
  0
SPLINE
  5
1D7
330
15F
100
AcDbEntity
  8
Layer 01
100
AcDbSpline
210
0.0
220
0.0
230
1.0
 70
    24
 71
     2
 72
     6
 73
     3
 74
     0
 42
0.000000001
 43
0.0000000001
 40
0.0
 40
0.0
 40
0.0
 40
1.5
 40
1.5
 40
1.5
 10
0.0
 20
55.0
 30
-7.5
 10
0.0
 20
54.25
 30
-7.5
 10
0.0
 20
53.5
 30
-7.5
  0
ARC
  5
1D8
330
15F
100
AcDbEntity
  8
Layer 01
100
AcDbCircle
 10
0.0
 20
0.0
 30
53.5
 40
7.5
210
0.0
220
1.0
230
0.0
100
AcDbArc
 50
270.0
 51
90.0
  0
SPLINE
  5
1D9
330
15F
100
AcDbEntity
  8
Layer 01
100
AcDbSpline
210
0.0
220
0.0
230
1.0
 70
    24
 71
     2
 72
     6
 73
     3
 74
     0
 42
0.000000001
 43
0.0000000001
 40
0.0
 40
0.0
 40
0.0
 40
1.5
 40
1.5
 40
1.5
 10
0.0
 20
53.5
 30
7.5
 10
0.0
 20
54.25
 30
7.5
 10
0.0
 20
55.0
 30
7.5
  0
ARC
  5
1DA
330
15F
100
AcDbEntity
  8
Layer 01
100
AcDbCircle
 10
0.0
 20
0.0
 30
55.0
 40
7.5
210
0.0
220
1.0
230
0.0
100
AcDbArc
 50
90.00000000000001
 51
270.0
  0
ARC
  5
1DB
330
15F
100
AcDbEntity
  8
Layer 01
100
AcDbCircle
 10
0.0
 20
0.0
 30
53.5
 40
7.5
210
0.0
220
1.0
230
0.0
100
AcDbArc
 50
90.00000000000001
 51
270.0
  0
ARC
  5
1DC
330
15F
100
AcDbEntity
  8
Layer 01
100
AcDbCircle
 10
130.399986549
 20
-34.94057108884
 30
53.5
 40
11.0
210
0.0
220
1.0
230
0.0
100
AcDbArc
 50
180.0
 51
0.0
  0
ARC
  5
1DD
330
15F
100
AcDbEntity
  8
Layer 01
100
AcDbCircle
 10
130.39998654905
 20
-34.94057108884
 30
55.43896951832
 40
8.193896951850007
210
0.0
220
1.0
230
0.0
100
AcDbArc
 50
180.0
 51
0.0
  0
ARC
  5
1DE
330
15F
100
AcDbEntity
  8
Layer 01
100
AcDbCircle
 10
119.399986549
 20
56.5000000000442
 30
34.94057108884
 40
3.000000000044196
210
0.0
220
0.0
230
-1.0
100
AcDbArc
 50
270.0
 51
339.2876280445705
  0
ARC
  5
1DF
330
15F
100
AcDbEntity
  8
Layer 01
100
AcDbCircle
 10
141.399986549
 20
56.49999999989949
 30
34.94057108884
 40
2.999999999899487
210
0.0
220
0.0
230
-1.0
100
AcDbArc
 50
200.7123719535199
 51
270.0
  0
ARC
  5
1E0
330
15F
100
AcDbEntity
  8
Layer 01
100
AcDbCircle
 10
130.399986549
 20
-34.94057108884
 30
53.5
 40
11.0
210
0.0
220
1.0
230
0.0
100
AcDbArc
 50
0.0
 51
180.0
  0
ARC
  5
1E1
330
15F
100
AcDbEntity
  8
Layer 01
100
AcDbCircle
 10
130.39998654905
 20
-34.94057108884
 30
55.43896951832
 40
8.193896951850007
210
0.0
220
1.0
230
0.0
100
AcDbArc
 50
0.0
 51
180.0
  0
SPLINE
  5
1E2
330
15F
100
AcDbEntity
  8
Layer 01
100
AcDbSpline
210
0.0
220
0.0
230
1.0
 70
    24
 71
     2
 72
     6
 73
     3
 74
     0
 42
0.000000001
 43
0.0000000001
 40
0.0
 40
0.0
 40
0.0
 40
2.236067977514078
 40
2.236067977514078
 40
2.236067977514078
 10
-137.8030380731
 20
57.53051524084
 30
-34.94057108884
 10
-138.198460787
 20
56.48474237958
 30
-34.94057108884
 10
-138.5938835009
 20
55.43896951832
 30
-34.94057108884
  0
SPLINE
  5
1E3
330
15F
100
AcDbEntity
  8
Layer 01
100
AcDbSpline
210
0.0
220
0.0
230
1.0
 70
    24
 71
     2
 72
     6
 73
     3
 74
     0
 42
0.000000001
 43
0.0000000001
 40
0.0
 40
0.0
 40
0.0
 40
2.236067977478704
 40
2.236067977478704
 40
2.236067977478704
 10
-122.2060895972
 20
55.43896951832
 30
-34.94057108884
 10
-122.60151231105
 20
56.48474237958
 30
-34.94057108884
 10
-122.9969350249
 20
57.53051524084
 30
-34.94057108884
  0
ARC
  5
1E4
330
15F
100
AcDbEntity
  8
Layer 01
100
AcDbCircle
 10
-130.399986549
 20
-34.94057108884
 30
-57.53051524084
 40
7.403051524099993
210
0.0
220
-1.0
230
0.0
100
AcDbArc
 50
0.0
 51
180.0
  0
ARC
  5
1E5
330
15F
100
AcDbEntity
  8
Layer 01
100
AcDbCircle
 10
-130.399986549
 20
-34.94057108884
 30
-57.53051524084
 40
7.403051524099993
210
0.0
220
-1.0
230
0.0
100
AcDbArc
 50
180.0
 51
0.0
  0
ARC
  5
1E6
330
15F
100
AcDbEntity
  8
Layer 01
100
AcDbCircle
 10
-130.399986549
 20
-34.94057108884
 30
-58.5
 40
6.0
210
0.0
220
-1.0
230
0.0
100
AcDbArc
 50
180.0
 51
0.0
  0
ARC
  5
1E7
330
15F
100
AcDbEntity
  8
Layer 01
100
AcDbCircle
 10
124.399986549
 20
56.99999999997787
 30
34.94057108884
 40
1.500000000022126
210
0.0
220
0.0
230
-1.0
100
AcDbArc
 50
90.0
 51
159.2876280445694
  0
ARC
  5
1E8
330
15F
100
AcDbEntity
  8
Layer 01
100
AcDbCircle
 10
136.399986549
 20
56.99999999997794
 30
34.94057108884
 40
1.500000000022055
210
0.0
220
0.0
230
-1.0
100
AcDbArc
 50
20.71237195542868
 51
90.0
  0
ARC
  5
1E9
330
15F
100
AcDbEntity
  8
Layer 01
100
AcDbCircle
 10
-130.399986549
 20
-34.94057108884
 30
-60.0
 40
2.75
210
0.0
220
-1.0
230
0.0
100
AcDbArc
 50
0.0
 51
180.0
  0
SPLINE
  5
1EA
330
15F
100
AcDbEntity
  8
Layer 01
100
AcDbSpline
210
0.0
220
0.0
230
1.0
 70
    24
 71
     2
 72
     6
 73
     3
 74
     0
 42
0.000000001
 43
0.0000000001
 40
0.0
 40
0.0
 40
0.0
 40
1.5
 40
1.5
 40
1.5
 10
-133.149986549
 20
60.0
 30
-34.94057108884
 10
-133.149986549
 20
59.25
 30
-34.94057108884
 10
-133.149986549
 20
58.5
 30
-34.94057108884
  0
ARC
  5
1EB
330
15F
100
AcDbEntity
  8
Layer 01
100
AcDbCircle
 10
-130.399986549
 20
-34.94057108884
 30
-58.5
 40
2.75
210
0.0
220
-1.0
230
0.0
100
AcDbArc
 50
0.0
 51
180.0
  0
SPLINE
  5
1EC
330
15F
100
AcDbEntity
  8
Layer 01
100
AcDbSpline
210
0.0
220
0.0
230
1.0
 70
    24
 71
     2
 72
     6
 73
     3
 74
     0
 42
0.000000001
 43
0.0000000001
 40
0.0
 40
0.0
 40
0.0
 40
1.5
 40
1.5
 40
1.5
 10
-127.649986549
 20
58.5
 30
-34.94057108884
 10
-127.649986549
 20
59.25
 30
-34.94057108884
 10
-127.649986549
 20
60.0
 30
-34.94057108884
  0
ARC
  5
1ED
330
15F
100
AcDbEntity
  8
Layer 01
100
AcDbCircle
 10
-130.399986549
 20
-34.94057108884
 30
-60.0
 40
2.75
210
0.0
220
-1.0
230
0.0
100
AcDbArc
 50
180.0
 51
0.0
  0
ARC
  5
1EE
330
15F
100
AcDbEntity
  8
Layer 01
100
AcDbCircle
 10
-130.399986549
 20
-34.94057108884
 30
-58.5
 40
2.75
210
0.0
220
-1.0
230
0.0
100
AcDbArc
 50
180.0
 51
0.0
  0
ARC
  5
1EF
330
15F
100
AcDbEntity
  8
Layer 01
100
AcDbCircle
 10
130.399986549
 20
-34.94057108884
 30
60.0
 40
6.0
210
0.0
220
1.0
230
0.0
100
AcDbArc
 50
180.0
 51
0.0
  0
ARC
  5
1F0
330
15F
100
AcDbEntity
  8
Layer 01
100
AcDbCircle
 10
130.39998654905
 20
-34.94057108884
 30
58.06103048168
 40
8.806103048149993
210
0.0
220
1.0
230
0.0
100
AcDbArc
 50
180.0
 51
0.0
  0
ARC
  5
1F1
330
15F
100
AcDbEntity
  8
Layer 01
100
AcDbCircle
 10
124.399986549
 20
57.00000000010051
 30
34.94057108884
 40
2.999999999899487
210
0.0
220
0.0
230
-1.0
100
AcDbArc
 50
90.0
 51
159.2876280464801
  0
ARC
  5
1F2
330
15F
100
AcDbEntity
  8
Layer 01
100
AcDbCircle
 10
136.399986549
 20
56.9999999999558
 30
34.94057108884
 40
3.000000000044196
210
0.0
220
0.0
230
-1.0
100
AcDbArc
 50
20.71237195542969
 51
90.0
  0
ARC
  5
1F3
330
15F
100
AcDbEntity
  8
Layer 01
100
AcDbCircle
 10
130.399986549
 20
-34.94057108884
 30
60.0
 40
6.0
210
0.0
220
1.0
230
0.0
100
AcDbArc
 50
0.0
 51
180.0
  0
ARC
  5
1F4
330
15F
100
AcDbEntity
  8
Layer 01
100
AcDbCircle
 10
130.39998654905
 20
-34.94057108884
 30
58.06103048168
 40
8.806103048149993
210
0.0
220
1.0
230
0.0
100
AcDbArc
 50
0.0
 51
180.0
  0
SPLINE
  5
1F5
330
15F
100
AcDbEntity
  8
Layer 01
100
AcDbSpline
210
0.0
220
0.0
230
1.0
 70
    24
 71
     2
 72
     6
 73
     3
 74
     0
 42
0.000000001
 43
0.0000000001
 40
-2.236067977478714
 40
-2.236067977478714
 40
-2.236067977478714
 40
0.0
 40
0.0
 40
0.0
 10
-139.2060895972
 20
58.06103048168
 30
-34.94057108884
 10
-139.60151231105
 20
57.01525762042
 30
-34.94057108884
 10
-139.9969350249
 20
55.96948475916
 30
-34.94057108884
  0
SPLINE
  5
1F6
330
15F
100
AcDbEntity
  8
Layer 01
100
AcDbSpline
210
0.0
220
0.0
230
1.0
 70
    24
 71
     2
 72
     6
 73
     3
 74
     0
 42
0.000000001
 43
0.0000000001
 40
-2.236067977514078
 40
-2.236067977514078
 40
-2.236067977514078
 40
0.0
 40
0.0
 40
0.0
 10
-120.8030380731
 20
55.96948475916
 30
-34.94057108884
 10
-121.198460787
 20
57.01525762042
 30
-34.94057108884
 10
-121.5938835009
 20
58.06103048168
 30
-34.94057108884
  0
ARC
  5
1F7
330
15F
100
AcDbEntity
  8
Layer 01
100
AcDbCircle
 10
130.399986549
 20
-34.94057108884
 30
55.96948475916
 40
9.596948475900035
210
0.0
220
1.0
230
0.0
100
AcDbArc
 50
0.0
 51
180.0
  0
ARC
  5
1F8
330
15F
100
AcDbEntity
  8
Layer 01
100
AcDbCircle
 10
130.399986549
 20
-34.94057108884
 30
55.96948475916
 40
9.596948475899978
210
0.0
220
1.0
230
0.0
100
AcDbArc
 50
180.0
 51
0.0
  0
ARC
  5
1F9
330
15F
100
AcDbEntity
  8
Layer 01
100
AcDbCircle
 10
130.399986549
 20
-34.94057108884
 30
55.0
 40
11.0
210
0.0
220
1.0
230
0.0
100
AcDbArc
 50
180.0
 51
0.0
  0
ARC
  5
1FA
330
15F
100
AcDbEntity
  8
Layer 01
100
AcDbCircle
 10
130.399986549
 20
-34.94057108884
 30
55.0
 40
11.0
210
0.0
220
1.0
230
0.0
100
AcDbArc
 50
0.0
 51
180.0
  0
ARC
  5
1FB
330
15F
100
AcDbEntity
  8
Layer 01
100
AcDbCircle
 10
-141.399986549
 20
56.50000000002208
 30
-34.94057108884
 40
1.500000000022077
100
AcDbArc
 50
270.0
 51
339.2876280445712
  0
ARC
  5
1FC
330
15F
100
AcDbEntity
  8
Layer 01
100
AcDbCircle
 10
-119.399986549
 20
56.50000000002209
 30
-34.94057108884
 40
1.500000000022091
100
AcDbArc
 50
200.7123719554296
 51
270.0
  0
ARC
  5
1FD
330
15F
100
AcDbEntity
  8
Layer 01
100
AcDbCircle
 10
130.399986549
 20
-34.94057108884
 30
58.5
 40
6.0
210
0.0
220
1.0
230
0.0
100
AcDbArc
 50
0.0
 51
180.0
  0
ARC
  5
1FE
330
15F
100
AcDbEntity
  8
Layer 01
100
AcDbCircle
 10
56.50000000028884
 20
-119.399986548937
 30
34.94057108868415
 40
3.000000000001648
210
0.8660254037844287
220
-2.764779356278780E-12
230
0.5000000000000172
100
AcDbArc
 50
180.0000000000909
 51
249.2876280452234
  0
ARC
  5
1FF
330
15F
100
AcDbEntity
  8
Layer 01
100
AcDbCircle
 10
-95.45941546018256
 20
-95.45941546018427
 30
53.5
 40
10.99999999999737
210
0.0
220
1.0
230
0.0
100
AcDbArc
 50
59.99999999997654
 51
239.9999999998872
  0
ARC
  5
200
330
15F
100
AcDbEntity
  8
Layer 01
100
AcDbCircle
 10
-95.45941546019208
 20
-95.4594154602009
 30
55.43896951832006
 40
8.193896951845906
210
2.167902342234823E-16
220
1.0
230
-3.754917002616606E-16
100
AcDbArc
 50
60.00000000000685
 51
240.0000000001214
  0
ARC
  5
201
330
15F
100
AcDbEntity
  8
Layer 01
100
AcDbCircle
 10
56.49999999760121
 20
-141.3999865496781
 30
34.94057108993407
 40
2.999999999946283
210
0.866025403784429
220
2.011590841845469E-11
230
0.5000000000000168
100
AcDbArc
 50
110.7123719534721
 51
179.999999999335
  0
ARC
  5
202
330
15F
100
AcDbEntity
  8
Layer 01
100
AcDbCircle
 10
-95.459415460192
 20
-95.45941546020096
 30
55.43896951831995
 40
8.193896951845883
210
-2.167902342242280E-16
220
1.0
230
3.754917002612308E-16
100
AcDbArc
 50
240.0000000001205
 51
60.00000000000755
  0
ARC
  5
203
330
15F
100
AcDbEntity
  8
Layer 01
100
AcDbCircle
 10
-95.45941546018238
 20
-95.45941546018439
 30
53.5
 40
10.99999999999736
210
0.0
220
1.0
230
0.0
100
AcDbArc
 50
239.9999999998862
 51
59.99999999997763
  0
SPLINE
  5
204
330
15F
100
AcDbEntity
  8
Layer 01
100
AcDbSpline
210
0.0
220
0.0
230
1.0
 70
    24
 71
     2
 72
     6
 73
     3
 74
     0
 42
0.000000001
 43
0.0000000001
 40
0.0
 40
0.0
 40
0.0
 40
2.236067977496034
 40
2.236067977496034
 40
2.236067977496034
 10
99.16094122222998
 20
57.53051524084
 30
-101.8706461456
 10
99.358652579165
 20
56.48474237958001
 30
-102.21309226105
 10
99.55636393610001
 20
55.43896951832001
 30
-102.5555383765
  0
SPLINE
  5
205
330
15F
100
AcDbEntity
  8
Layer 01
100
AcDbSpline
210
0.0
220
0.0
230
1.0
 70
    24
 71
     2
 72
     6
 73
     3
 74
     0
 42
0.000000001
 43
0.0000000001
 40
0.0
 40
0.0
 40
0.0
 40
2.236067977492975
 40
2.236067977492975
 40
2.236067977492975
 10
91.36246698426999
 20
55.43896951832001
 30
-88.36329254391
 10
91.560178341205
 20
56.48474237958001
 30
-88.705738659355
 10
91.75788969814002
 20
57.53051524084
 30
-89.0481847748
  0
ARC
  5
206
330
15F
100
AcDbEntity
  8
Layer 01
100
AcDbCircle
 10
95.4594154601899
 20
-95.45941546019718
 30
-57.53051524084
 40
7.403051524101213
210
0.0
220
-1.0
230
0.0
100
AcDbArc
 50
119.9999999999936
 51
299.999999999906
  0
ARC
  5
207
330
15F
100
AcDbEntity
  8
Layer 01
100
AcDbCircle
 10
95.45941546018989
 20
-95.45941546019716
 30
-57.53051524084
 40
7.403051524101179
210
0.0
220
-1.0
230
0.0
100
AcDbArc
 50
299.999999999906
 51
119.9999999999936
  0
ARC
  5
208
330
15F
100
AcDbEntity
  8
Layer 01
100
AcDbCircle
 10
95.45941546018433
 20
-95.45941546018746
 30
-58.5
 40
6.000000000002913
210
0.0
220
-1.0
230
0.0
100
AcDbArc
 50
299.999999999936
 51
120.0000000000319
  0
ARC
  5
209
330
15F
100
AcDbEntity
  8
Layer 01
100
AcDbCircle
 10
56.99999999953845
 20
-124.3999865491663
 30
34.94057108908478
 40
1.500000000003503
210
0.8660254037844315
220
4.290343676765450E-12
230
0.5000000000000121
100
AcDbArc
 50
359.9999999998589
 51
69.28762804491946
  0
ARC
  5
20A
330
15F
100
AcDbEntity
  8
Layer 01
100
AcDbCircle
 10
57.00000000060837
 20
-136.3999865488447
 30
34.94057108849816
 40
1.50000000003574
210
0.8660254037844292
220
-5.665490166585810E-12
230
0.5000000000000165
100
AcDbArc
 50
290.7123719559776
 51
0.0000000001878139
  0
ARC
  5
20B
330
15F
100
AcDbEntity
  8
Layer 01
100
AcDbCircle
 10
95.45941546018217
 20
-95.45941546018376
 30
-60.0
 40
2.749999999998049
210
0.0
220
-1.0
230
0.0
100
AcDbArc
 50
120.0000000000751
 51
299.9999999999708
  0
SPLINE
  5
20C
330
15F
100
AcDbEntity
  8
Layer 01
100
AcDbSpline
210
0.0
220
0.0
230
1.0
 70
    24
 71
     2
 72
     6
 73
     3
 74
     0
 42
0.000000001
 43
0.0000000001
 40
0.0
 40
0.0
 40
0.0
 40
1.5
 40
1.5
 40
1.5
 10
96.83441546017998
 20
60.0
 30
-97.84098532059
 10
96.83441546017998
 20
59.25
 30
-97.84098532059
 10
96.83441546017998
 20
58.5
 30
-97.84098532059
  0
ARC
  5
20D
330
15F
100
AcDbEntity
  8
Layer 01
100
AcDbCircle
 10
95.45941546018217
 20
-95.45941546018376
 30
-58.5
 40
2.749999999998049
210
0.0
220
-1.0
230
0.0
100
AcDbArc
 50
120.0000000000751
 51
299.9999999999708
  0
SPLINE
  5
20E
330
15F
100
AcDbEntity
  8
Layer 01
100
AcDbSpline
210
0.0
220
0.0
230
1.0
 70
    24
 71
     2
 72
     6
 73
     3
 74
     0
 42
0.000000001
 43
0.0000000001
 40
0.0
 40
0.0
 40
0.0
 40
1.5
 40
1.5
 40
1.5
 10
94.08441546018
 20
58.5
 30
-93.07784559978
 10
94.08441546018
 20
59.25
 30
-93.07784559978
 10
94.08441546018
 20
60.0
 30
-93.07784559978
  0
ARC
  5
20F
330
15F
100
AcDbEntity
  8
Layer 01
100
AcDbCircle
 10
95.45941546018217
 20
-95.45941546018376
 30
-60.0
 40
2.749999999998038
210
0.0
220
-1.0
230
0.0
100
AcDbArc
 50
299.9999999999706
 51
120.0000000000752
  0
ARC
  5
210
330
15F
100
AcDbEntity
  8
Layer 01
100
AcDbCircle
 10
95.45941546018217
 20
-95.45941546018376
 30
-58.5
 40
2.749999999998038
210
0.0
220
-1.0
230
0.0
100
AcDbArc
 50
299.9999999999706
 51
120.0000000000752
  0
ARC
  5
211
330
15F
100
AcDbEntity
  8
Layer 01
100
AcDbCircle
 10
-95.4594154601843
 20
-95.45941546018747
 30
60.0
 40
6.000000000002911
210
0.0
220
1.0
230
0.0
100
AcDbArc
 50
59.99999999996842
 51
240.0000000000637
  0
ARC
  5
212
330
15F
100
AcDbEntity
  8
Layer 01
100
AcDbCircle
 10
-95.4594154601748
 20
-95.45941546017086
 30
58.06103048168006
 40
8.806103048149378
210
2.017188340513257E-16
220
1.0
230
-3.493872694182829E-16
100
AcDbArc
 50
59.9999999999991
 51
239.999999999846
  0
ARC
  5
213
330
15F
100
AcDbEntity
  8
Layer 01
100
AcDbCircle
 10
56.99999999982431
 20
-124.3999865490811
 30
34.94057108893515
 40
2.999999999994432
210
0.8660254037844294
220
1.697711715894200E-12
230
0.5000000000000159
100
AcDbArc
 50
359.9999999999441
 51
69.28762804517078
  0
ARC
  5
214
330
15F
100
AcDbEntity
  8
Layer 01
100
AcDbCircle
 10
56.99999999827968
 20
-136.3999865495467
 30
34.94057108976963
 40
2.99999999993905
210
0.866025403784429
220
1.566761743073584E-11
230
0.5000000000000167
100
AcDbArc
 50
290.7123719535237
 51
359.9999999994811
  0
ARC
  5
215
330
15F
100
AcDbEntity
  8
Layer 01
100
AcDbCircle
 10
-95.4594154601843
 20
-95.45941546018749
 30
60.0
 40
6.000000000002911
210
0.0
220
1.0
230
0.0
100
AcDbArc
 50
240.0000000000637
 51
59.99999999996842
  0
ARC
  5
216
330
15F
100
AcDbEntity
  8
Layer 01
100
AcDbCircle
 10
-95.4594154601748
 20
-95.45941546017087
 30
58.06103048168
 40
8.806103048149373
210
0.0
220
1.0
230
0.0
100
AcDbArc
 50
239.9999999998458
 51
59.99999999999917
  0
SPLINE
  5
217
330
15F
100
AcDbEntity
  8
Layer 01
100
AcDbSpline
210
0.0
220
0.0
230
1.0
 70
    24
 71
     2
 72
     6
 73
     3
 74
     0
 42
0.000000001
 43
0.0000000001
 40
-2.236067977488964
 40
-2.236067977488964
 40
-2.236067977488964
 40
0.0
 40
0.0
 40
0.0
 10
99.86246698427001
 20
58.06103048168
 30
-103.0857244082
 10
100.060178341185
 20
57.01525762042
 30
-103.42817052365
 10
100.2578896981
 20
55.96948475916
 30
-103.7706166391
  0
SPLINE
  5
218
330
15F
100
AcDbEntity
  8
Layer 01
100
AcDbSpline
210
0.0
220
0.0
230
1.0
 70
    24
 71
     2
 72
     6
 73
     3
 74
     0
 42
0.000000001
 43
0.0000000001
 40
-2.236067977496039
 40
-2.236067977496039
 40
-2.236067977496039
 40
0.0
 40
0.0
 40
0.0
 10
90.66094122223001
 20
55.96948475916
 30
-87.14821428123
 10
90.85865257916501
 20
57.01525762042
 30
-87.49066039668
 10
91.0563639361
 20
58.06103048168001
 30
-87.83310651213
  0
ARC
  5
219
330
15F
100
AcDbEntity
  8
Layer 01
100
AcDbCircle
 10
-95.45941546016984
 20
-95.45941546016223
 30
55.96948475916
 40
9.596948475888395
210
0.0
220
1.0
230
0.0
100
AcDbArc
 50
240.0000000000966
 51
60.00000000003012
  0
ARC
  5
21A
330
15F
100
AcDbEntity
  8
Layer 01
100
AcDbCircle
 10
56.50000000101825
 20
-119.3999865487064
 30
34.9405710882935
 40
1.499999999998203
210
0.8660254037844353
220
-9.819931018525434E-12
230
0.5000000000000061
100
AcDbArc
 50
180.0000000003235
 51
249.2876280455259
  0
ARC
  5
21B
330
15F
100
AcDbEntity
  8
Layer 01
100
AcDbCircle
 10
-95.45941546016986
 20
-95.45941546016218
 30
55.96948475916
 40
9.596948475888397
210
0.0
220
1.0
230
0.0
100
AcDbArc
 50
60.00000000002985
 51
240.0000000000969
  0
ARC
  5
21C
330
15F
100
AcDbEntity
  8
Layer 01
100
AcDbCircle
 10
-95.45941546018256
 20
-95.45941546018427
 30
55.0
 40
10.99999999999737
210
0.0
220
1.0
230
0.0
100
AcDbArc
 50
59.99999999997654
 51
239.9999999998872
  0
ARC
  5
21D
330
15F
100
AcDbEntity
  8
Layer 01
100
AcDbCircle
 10
-95.45941546018238
 20
-95.45941546018439
 30
55.0
 40
10.99999999999736
210
0.0
220
1.0
230
0.0
100
AcDbArc
 50
239.9999999998862
 51
59.99999999997763
  0
ARC
  5
21E
330
15F
100
AcDbEntity
  8
Layer 01
100
AcDbCircle
 10
-56.49999999552742
 20
-141.3999865502936
 30
-34.94057109100167
 40
1.500000000071964
210
-0.866025403784428
220
-3.898292513044953E-11
230
-0.5000000000000183
100
AcDbArc
 50
0.0000000012908133
 51
69.28762804454375
  0
ARC
  5
21F
330
15F
100
AcDbEntity
  8
Layer 01
100
AcDbCircle
 10
95.4594154601843
 20
-95.45941546018749
 30
-58.5
 40
6.000000000002911
210
0.0
220
-1.0
230
0.0
100
AcDbArc
 50
120.0000000000316
 51
299.9999999999363
  0
ARC
  5
220
330
15F
100
AcDbEntity
  8
Layer 01
100
AcDbCircle
 10
-56.50000000031227
 20
119.3999865486625
 30
34.9405710894433
 40
2.99999999993181
210
-0.8660254037844315
220
1.119149885807135E-11
230
0.5000000000000121
100
AcDbArc
 50
0.0000000003699282
 51
69.28762804642359
  0
ARC
  5
221
330
15F
100
AcDbEntity
  8
Layer 01
100
AcDbCircle
 10
-34.9405710888617
 20
130.3999865490375
 30
53.5
 40
11.00000000001834
210
0.0
220
1.0
230
0.0
100
AcDbArc
 50
300.0000000000753
 51
119.9999999998144
  0
ARC
  5
222
330
15F
100
AcDbEntity
  8
Layer 01
100
AcDbCircle
 10
-34.9405710888399
 20
130.3999865490001
 30
55.43896951832
 40
8.193896951852723
210
0.0
220
1.0
230
0.0
100
AcDbArc
 50
299.9999999999478
 51
119.9999999999495
  0
ARC
  5
223
330
15F
100
AcDbEntity
  8
Layer 01
100
AcDbCircle
 10
-56.50000000073799
 20
141.3999865485883
 30
34.940571089647
 40
3.000000000056986
210
-0.8660254037844289
220
1.458360130245163E-11
230
0.5000000000000168
100
AcDbArc
 50
290.7123719560806
 51
0.0000000004831051
  0
ARC
  5
224
330
15F
100
AcDbEntity
  8
Layer 01
100
AcDbCircle
 10
-34.94057108883999
 20
130.399986549
 30
55.43896951832
 40
8.193896951852727
210
0.0
220
1.0
230
0.0
100
AcDbArc
 50
119.9999999999486
 51
299.9999999999486
  0
ARC
  5
225
330
15F
100
AcDbEntity
  8
Layer 01
100
AcDbCircle
 10
-34.94057108886165
 20
130.3999865490375
 30
53.5
 40
11.00000000001831
210
0.0
220
1.0
230
0.0
100
AcDbArc
 50
119.9999999998148
 51
300.0000000000751
  0
SPLINE
  5
226
330
15F
100
AcDbEntity
  8
Layer 01
100
AcDbSpline
210
0.0
220
0.0
230
1.0
 70
    24
 71
     2
 72
     6
 73
     3
 74
     0
 42
0.000000001
 43
0.0000000001
 40
0.0
 40
0.0
 40
0.0
 40
2.236067977497806
 40
2.236067977497806
 40
2.236067977497806
 10
38.64209685087999
 20
57.53051524084
 30
136.8112172344
 10
38.83980820782
 20
56.48474237958
 30
137.15366334985
 10
39.03751956476
 20
55.43896951832
 30
137.4961094653
  0
SPLINE
  5
227
330
15F
100
AcDbEntity
  8
Layer 01
100
AcDbSpline
210
0.0
220
0.0
230
1.0
 70
    24
 71
     2
 72
     6
 73
     3
 74
     0
 42
0.000000001
 43
0.0000000001
 40
0.0
 40
0.0
 40
0.0
 40
2.236067977497806
 40
2.236067977497806
 40
2.236067977497806
 10
30.84362261291999
 20
55.43896951832
 30
123.3038636327
 10
31.04133396986
 20
56.48474237958
 30
123.64630974815
 10
31.2390453268
 20
57.53051524084
 30
123.9887558636
  0
ARC
  5
228
330
15F
100
AcDbEntity
  8
Layer 01
100
AcDbCircle
 10
34.94057108884002
 20
130.399986549
 30
-57.53051524084
 40
7.403051524098703
210
0.0
220
-1.0
230
0.0
100
AcDbArc
 50
240.0000000000834
 51
60.00000000008384
  0
ARC
  5
229
330
15F
100
AcDbEntity
  8
Layer 01
100
AcDbCircle
 10
34.94057108884
 20
130.399986549
 30
-57.53051524084
 40
7.403051524098703
210
0.0
220
-1.0
230
0.0
100
AcDbArc
 50
60.00000000008354
 51
240.0000000000836
  0
ARC
  5
22A
330
15F
100
AcDbEntity
  8
Layer 01
100
AcDbCircle
 10
34.94057108884002
 20
130.399986549
 30
-58.5
 40
5.999999999994253
210
0.0
220
-1.0
230
0.0
100
AcDbArc
 50
59.99999999996862
 51
239.9999999999681
  0
ARC
  5
22B
330
15F
100
AcDbEntity
  8
Layer 01
100
AcDbCircle
 10
-56.99999999943323
 20
124.3999865494885
 30
34.94057108798005
 40
1.500000000028571
210
-0.8660254037844308
220
-1.459264813038560E-11
230
0.5000000000000134
100
AcDbArc
 50
179.9999999995175
 51
249.2876280439168
  0
ARC
  5
22C
330
15F
100
AcDbEntity
  8
Layer 01
100
AcDbCircle
 10
-57.00000000061095
 20
136.3999865485163
 30
34.94057108968168
 40
1.500000000028535
210
-0.866025403784429
220
1.459688525234173E-11
230
0.5000000000000165
100
AcDbArc
 50
110.7123719560829
 51
180.0000000004842
  0
ARC
  5
22D
330
15F
100
AcDbEntity
  8
Layer 01
100
AcDbCircle
 10
34.94057108884002
 20
130.399986549
 30
-60.0
 40
2.749999999993766
210
0.0
220
-1.0
230
0.0
100
AcDbArc
 50
239.9999999999242
 51
59.99999999992554
  0
SPLINE
  5
22E
330
15F
100
AcDbEntity
  8
Layer 01
100
AcDbSpline
210
0.0
220
0.0
230
1.0
 70
    24
 71
     2
 72
     6
 73
     3
 74
     0
 42
0.000000001
 43
0.0000000001
 40
0.0
 40
0.0
 40
0.0
 40
1.5
 40
1.5
 40
1.5
 10
36.31557108884
 20
60.0
 30
132.7815564094
 10
36.31557108884
 20
59.25
 30
132.7815564094
 10
36.31557108884
 20
58.5
 30
132.7815564094
  0
ARC
  5
22F
330
15F
100
AcDbEntity
  8
Layer 01
100
AcDbCircle
 10
34.94057108884002
 20
130.399986549
 30
-58.5
 40
2.749999999993766
210
0.0
220
-1.0
230
0.0
100
AcDbArc
 50
239.9999999999242
 51
59.99999999992554
  0
SPLINE
  5
230
330
15F
100
AcDbEntity
  8
Layer 01
100
AcDbSpline
210
0.0
220
0.0
230
1.0
 70
    24
 71
     2
 72
     6
 73
     3
 74
     0
 42
0.000000001
 43
0.0000000001
 40
0.0
 40
0.0
 40
0.0
 40
1.5
 40
1.5
 40
1.5
 10
33.56557108883999
 20
58.5
 30
128.0184166886
 10
33.56557108883999
 20
59.25
 30
128.0184166886
 10
33.56557108883999
 20
60.0
 30
128.0184166886
  0
ARC
  5
231
330
15F
100
AcDbEntity
  8
Layer 01
100
AcDbCircle
 10
34.94057108883997
 20
130.399986549
 30
-60.0
 40
2.749999999993734
210
0.0
220
-1.0
230
0.0
100
AcDbArc
 50
59.99999999992403
 51
239.9999999999255
  0
ARC
  5
232
330
15F
100
AcDbEntity
  8
Layer 01
100
AcDbCircle
 10
34.94057108883997
 20
130.399986549
 30
-58.5
 40
2.749999999993734
210
0.0
220
-1.0
230
0.0
100
AcDbArc
 50
59.99999999992403
 51
239.9999999999255
  0
ARC
  5
233
330
15F
100
AcDbEntity
  8
Layer 01
100
AcDbCircle
 10
-34.94057108884002
 20
130.399986549
 30
60.0
 40
5.999999999994251
210
0.0
220
1.0
230
0.0
100
AcDbArc
 50
300.0000000000319
 51
120.0000000000314
  0
ARC
  5
234
330
15F
100
AcDbEntity
  8
Layer 01
100
AcDbCircle
 10
-34.94057108886175
 20
130.3999865490374
 30
58.06103048168
 40
8.806103048159843
210
0.0
220
1.0
230
0.0
100
AcDbArc
 50
300.0000000001641
 51
119.999999999837
  0
ARC
  5
235
330
15F
100
AcDbEntity
  8
Layer 01
100
AcDbCircle
 10
-57.00000000048102
 20
124.3999865486398
 30
34.94057108950567
 40
2.99999999993175
210
-0.866025403784429
220
1.119192829611086E-11
230
0.5000000000000167
100
AcDbArc
 50
180.0000000003702
 51
249.2876280464242
  0
ARC
  5
236
330
15F
100
AcDbEntity
  8
Layer 01
100
AcDbCircle
 10
-57.00000000058262
 20
136.3999865485162
 30
34.94057108970387
 40
3.000000000057071
210
-0.8660254037844288
220
1.460158044155756E-11
230
0.5000000000000168
100
AcDbArc
 50
110.7123719560825
 51
180.0000000004837
  0
ARC
  5
237
330
15F
100
AcDbEntity
  8
Layer 01
100
AcDbCircle
 10
-34.94057108883999
 20
130.399986549
 30
60.0
 40
5.999999999994261
210
0.0
220
1.0
230
0.0
100
AcDbArc
 50
120.0000000000319
 51
300.0000000000315
  0
ARC
  5
238
330
15F
100
AcDbEntity
  8
Layer 01
100
AcDbCircle
 10
-34.94057108886157
 20
130.3999865490376
 30
58.06103048168
 40
8.806103048159855
210
0.0
220
1.0
230
0.0
100
AcDbArc
 50
119.9999999998384
 51
300.0000000001624
  0
SPLINE
  5
239
330
15F
100
AcDbEntity
  8
Layer 01
100
AcDbSpline
210
0.0
220
0.0
230
1.0
 70
    24
 71
     2
 72
     6
 73
     3
 74
     0
 42
0.000000001
 43
0.0000000001
 40
-2.236067977497807
 40
-2.236067977497807
 40
-2.236067977497807
 40
0.0
 40
0.0
 40
0.0
 10
39.34362261291999
 20
58.06103048168
 30
138.0262954971
 10
39.54133396986001
 20
57.01525762042
 30
138.36874161255
 10
39.73904532680001
 20
55.96948475916
 30
138.711187728
  0
SPLINE
  5
23A
330
15F
100
AcDbEntity
  8
Layer 01
100
AcDbSpline
210
0.0
220
0.0
230
1.0
 70
    24
 71
     2
 72
     6
 73
     3
 74
     0
 42
0.000000001
 43
0.0000000001
 40
-2.236067977497806
 40
-2.236067977497806
 40
-2.236067977497806
 40
0.0
 40
0.0
 40
0.0
 10
30.14209685087999
 20
55.96948475916
 30
122.0887853701
 10
30.33980820782
 20
57.01525762042
 30
122.43123148555
 10
30.53751956476001
 20
58.06103048168
 30
122.773677601
  0
ARC
  5
23B
330
15F
100
AcDbEntity
  8
Layer 01
100
AcDbCircle
 10
-34.94057108886162
 20
130.3999865490375
 30
55.96948475916
 40
9.596948475913894
210
0.0
220
1.0
230
0.0
100
AcDbArc
 50
119.9999999998721
 51
300.0000000001701
  0
ARC
  5
23C
330
15F
100
AcDbEntity
  8
Layer 01
100
AcDbCircle
 10
-34.94057108886164
 20
130.3999865490375
 30
55.96948475916
 40
9.596948475913871
210
0.0
220
1.0
230
0.0
100
AcDbArc
 50
300.0000000001702
 51
119.9999999998721
  0
ARC
  5
23D
330
15F
100
AcDbEntity
  8
Layer 01
100
AcDbCircle
 10
-34.9405710888617
 20
130.3999865490375
 30
55.0
 40
11.00000000001834
210
0.0
220
1.0
230
0.0
100
AcDbArc
 50
300.0000000000753
 51
119.9999999998144
  0
ARC
  5
23E
330
15F
100
AcDbEntity
  8
Layer 01
100
AcDbCircle
 10
-34.94057108886165
 20
130.3999865490375
 30
55.0
 40
11.00000000001831
210
0.0
220
1.0
230
0.0
100
AcDbArc
 50
119.9999999998148
 51
300.0000000000751
  0
ARC
  5
23F
330
15F
100
AcDbEntity
  8
Layer 01
100
AcDbCircle
 10
56.50000000070985
 20
141.3999865485879
 30
-34.94057108966991
 40
1.500000000028528
210
0.8660254037844265
220
-1.458989972693364E-11
230
-0.5000000000000211
100
AcDbArc
 50
179.9999999995169
 51
249.2876280439168
  0
ARC
  5
240
330
15F
100
AcDbEntity
  8
Layer 01
100
AcDbCircle
 10
56.49999999953217
 20
119.3999865495037
 30
-34.94057108804213
 40
1.500000000028564
210
0.8660254037844288
220
1.460180947503361E-11
230
-0.5000000000000171
100
AcDbArc
 50
110.7123719560835
 51
180.0000000004825
  0
ARC
  5
241
330
15F
100
AcDbEntity
  8
Layer 01
100
AcDbCircle
 10
-34.94057108883997
 20
130.399986549
 30
58.5
 40
5.999999999994254
210
0.0
220
1.0
230
0.0
100
AcDbArc
 50
120.000000000032
 51
300.0000000000313
  0
LINE
  5
242
330
15F
100
AcDbEntity
  8
Layer 01
100
AcDbLine
 10
150.0
 20
55.0
 30
0.0
 11
7.499999999999986
 21
55.0
 31
0.0
  0
LINE
  5
243
330
15F
100
AcDbEntity
  8
Layer 01
100
AcDbLine
 10
-7.500000000000013
 20
55.0
 30
0.0
 11
-143.7
 21
55.0
 31
0.0
  0
LINE
  5
244
330
15F
100
AcDbEntity
  8
Layer 01
100
AcDbLine
 10
-146.3
 20
55.0
 30
0.0
 11
-150.0
 21
55.0
 31
0.0
  0
LINE
  5
245
330
15F
100
AcDbEntity
  8
Layer 01
100
AcDbLine
 10
0.0
 20
55.0
 30
150.0
 11
0.0
 21
55.0
 31
7.499999999999986
  0
LINE
  5
246
330
15F
100
AcDbEntity
  8
Layer 01
100
AcDbLine
 10
0.0
 20
55.0
 30
-7.500000000000014
 11
0.0
 21
55.0
 31
-150.0
  0
ARC
  5
247
330
15F
100
AcDbEntity
  8
Layer 01
100
AcDbCircle
 10
45.0
 20
150.0
 30
0.0
 40
10.0
210
1.0
220
0.0
230
0.0
100
AcDbArc
 50
0.0
 51
83.73537454137528
  0
ARC
  5
248
330
15F
100
AcDbEntity
  8
Layer 01
100
AcDbCircle
 10
-45.0
 20
-150.0
 30
0.0
 40
10.0
210
-1.0
220
0.0
230
0.0
100
AcDbArc
 50
180.0
 51
263.7353745413752
  0
ARC
  5
249
330
15F
100
AcDbEntity
  8
Layer 01
100
AcDbCircle
 10
0.0
 20
0.0
 30
-23.04560308258499
 40
162.4701425810995
210
0.0
220
-1.0
230
0.0
100
AcDbArc
 50
180.0
 51
0.0
  0
LINE
  5
24A
330
15F
100
AcDbEntity
  8
Layer 01
100
AcDbLine
 10
0.0
 20
46.09120616516788
 30
-159.9402851621807
 11
0.0
 21
0.000000000002002
 31
-165.0000000000183
  0
ARC
  5
24B
330
15F
100
AcDbEntity
  8
Layer 01
100
AcDbCircle
 10
0.0
 20
0.0
 30
-23.04560308258499
 40
162.4701425810995
210
0.0
220
-1.0
230
0.0
100
AcDbArc
 50
0.0
 51
180.0
  0
LINE
  5
24C
330
15F
100
AcDbEntity
  8
Layer 01
100
AcDbLine
 10
0.0
 20
46.09120616516788
 30
159.9402851621807
 11
0.0
 21
0.000000000002002
 31
165.0000000000183
  0
LINE
  5
24D
330
15F
100
AcDbEntity
  8
Layer 01
100
AcDbLine
 10
-0.0000000000000101
 20
-0.1636809247680655
 30
163.5089572256992
 11
-0.0000000000000101
 21
0.0000000000040483
 31
164.9999999999995
  0
LINE
  5
24E
330
15F
100
AcDbEntity
  8
Layer 01
100
AcDbLine
 10
-0.0000000000000101
 20
-0.1636809247680655
 30
-163.5089572256992
 11
-0.0000000000000101
 21
0.0000000000040483
 31
-164.9999999999995
  0
LINE
  5
24F
330
15F
100
AcDbEntity
  8
Layer 01
100
AcDbLine
 10
0.0
 20
45.92752524039884
 30
-158.4492423878806
 11
0.0
 21
-0.1636809247727911
 31
-163.5089572257188
  0
ARC
  5
250
330
15F
100
AcDbEntity
  8
Layer 01
100
AcDbCircle
 10
0.0
 20
0.0
 30
-22.88192215780759
 40
160.9790998068003
210
0.0
220
-1.0
230
0.0
100
AcDbArc
 50
0.0
 51
180.0
  0
LINE
  5
251
330
15F
100
AcDbEntity
  8
Layer 01
100
AcDbLine
 10
0.0
 20
45.92752524039884
 30
158.4492423878806
 11
0.0
 21
-0.1636809247727298
 31
163.5089572257188
  0
ARC
  5
252
330
15F
100
AcDbEntity
  8
Layer 01
100
AcDbCircle
 10
45.0
 20
150.0
 30
0.0
 40
8.5
210
1.0
220
0.0
230
0.0
100
AcDbArc
 50
0.0
 51
83.73537454135399
  0
ARC
  5
253
330
15F
100
AcDbEntity
  8
Layer 01
100
AcDbCircle
 10
-45.0
 20
-150.0
 30
0.0
 40
8.5
210
-1.0
220
0.0
230
0.0
100
AcDbArc
 50
180.0
 51
263.735374541354
  0
LINE
  5
254
330
15F
100
AcDbEntity
  8
Layer 01
100
AcDbLine
 10
150.0
 20
53.5
 30
0.0
 11
7.499999999999986
 21
53.5
 31
0.0
  0
LINE
  5
255
330
15F
100
AcDbEntity
  8
Layer 01
100
AcDbLine
 10
-7.500000000000013
 20
53.5
 30
0.0
 11
-143.7
 21
53.5
 31
0.0
  0
LINE
  5
256
330
15F
100
AcDbEntity
  8
Layer 01
100
AcDbLine
 10
-146.3
 20
53.5
 30
0.0
 11
-150.0
 21
53.5
 31
0.0
  0
LINE
  5
257
330
15F
100
AcDbEntity
  8
Layer 01
100
AcDbLine
 10
0.0
 20
53.5
 30
150.0
 11
0.0
 21
53.5
 31
7.499999999999986
  0
LINE
  5
258
330
15F
100
AcDbEntity
  8
Layer 01
100
AcDbLine
 10
0.0
 20
53.5
 30
-7.500000000000014
 11
0.0
 21
53.5
 31
-150.0
  0
ARC
  5
259
330
15F
100
AcDbEntity
  8
Layer 01
100
AcDbCircle
 10
-145.0
 20
0.0
 30
-54.25
 40
1.300000000000011
210
0.0
220
-1.0
230
0.0
100
AcDbArc
 50
0.0
 51
180.0
  0
LINE
  5
25A
330
15F
100
AcDbEntity
  8
Layer 01
100
AcDbLine
 10
-145.0
 20
55.0
 30
1.300000000000011
 11
-145.0
 21
53.5
 31
1.300000000000011
  0
ARC
  5
25B
330
15F
100
AcDbEntity
  8
Layer 01
100
AcDbCircle
 10
-145.0
 20
0.0
 30
-54.25
 40
1.300000000000011
210
0.0
220
-1.0
230
0.0
100
AcDbArc
 50
180.0
 51
0.0
  0
LINE
  5
25C
330
15F
100
AcDbEntity
  8
Layer 01
100
AcDbLine
 10
-145.0
 20
55.0
 30
-1.300000000000011
 11
-145.0
 21
53.5
 31
-1.300000000000011
  0
ARC
  5
25D
330
15F
100
AcDbEntity
  8
Layer 01
100
AcDbCircle
 10
-144.2056748284
 20
-15.15662717380999
 30
-54.25
 40
1.300000000000011
210
0.0
220
-1.0
230
0.0
100
AcDbArc
 50
0.0
 51
180.0
  0
LINE
  5
25E
330
15F
100
AcDbEntity
  8
Layer 01
100
AcDbLine
 10
-144.2056748284
 20
55.0
 30
-13.85662717380998
 11
-144.2056748284
 21
53.5
 31
-13.85662717380998
  0
ARC
  5
25F
330
15F
100
AcDbEntity
  8
Layer 01
100
AcDbCircle
 10
-144.2056748284
 20
-15.15662717380999
 30
-54.25
 40
1.300000000000011
210
0.0
220
-1.0
230
0.0
100
AcDbArc
 50
180.0
 51
0.0
  0
LINE
  5
260
330
15F
100
AcDbEntity
  8
Layer 01
100
AcDbLine
 10
-144.2056748284
 20
55.0
 30
-16.45662717381001
 11
-144.2056748284
 21
53.5
 31
-16.45662717381001
  0
ARC
  5
261
330
15F
100
AcDbEntity
  8
Layer 01
100
AcDbCircle
 10
72.49999999999999
 20
-125.5736835487
 30
-54.25
 40
1.299999999999999
210
0.0
220
-1.0
230
0.0
100
AcDbArc
 50
120.0000000004357
 51
299.9999999982326
  0
LINE
  5
262
330
15F
100
AcDbEntity
  8
Layer 01
100
AcDbLine
 10
71.37416697508023
 20
55.0
 30
-126.2236835487
 11
71.37416697508023
 21
53.5
 31
-126.2236835487
  0
ARC
  5
263
330
15F
100
AcDbEntity
  8
Layer 01
100
AcDbCircle
 10
72.5
 20
-125.5736835487
 30
-54.25
 40
1.299999999999999
210
0.0
220
-1.0
230
0.0
100
AcDbArc
 50
299.9999999982322
 51
120.0000000004357
  0
LINE
  5
264
330
15F
100
AcDbEntity
  8
Layer 01
100
AcDbLine
 10
73.15000000000002
 20
55.0
 30
-126.6995165736197
 11
73.15000000000002
 21
53.5
 31
-126.6995165736197
  0
LINE
  5
265
330
15F
100
AcDbEntity
  8
Layer 01
100
AcDbLine
 10
73.62583302491976
 20
55.0
 30
-124.9236835487
 11
73.62583302491976
 21
53.5
 31
-124.9236835487
  0
LINE
  5
266
330
15F
100
AcDbEntity
  8
Layer 01
100
AcDbLine
 10
71.84999999999998
 20
55.0
 30
-124.4478505237802
 11
71.84999999999998
 21
53.5
 31
-124.4478505237802
  0
ARC
  5
267
330
15F
100
AcDbEntity
  8
Layer 01
100
AcDbCircle
 10
85.22886158241002
 20
-117.3074641844
 30
-54.25
 40
1.299999999999999
210
0.0
220
-1.0
230
0.0
100
AcDbArc
 50
119.9999999991166
 51
300.0000000004349
  0
LINE
  5
268
330
15F
100
AcDbEntity
  8
Layer 01
100
AcDbLine
 10
84.57886158241
 20
55.0
 30
-116.1816311594802
 11
84.57886158241
 21
53.5
 31
-116.1816311594802
  0
LINE
  5
269
330
15F
100
AcDbEntity
  8
Layer 01
100
AcDbLine
 10
84.10302855749026
 20
55.0
 30
-117.9574641844
 11
84.10302855749026
 21
53.5
 31
-117.9574641844
  0
LINE
  5
26A
330
15F
100
AcDbEntity
  8
Layer 01
100
AcDbLine
 10
85.87886158241004
 20
55.0
 30
-118.4332972093198
 11
85.87886158241004
 21
53.5
 31
-118.4332972093198
  0
ARC
  5
26B
330
15F
100
AcDbEntity
  8
Layer 01
100
AcDbCircle
 10
85.22886158241
 20
-117.3074641844
 30
-54.25
 40
1.299999999999999
210
0.0
220
-1.0
230
0.0
100
AcDbArc
 50
300.0000000004356
 51
119.9999999982321
  0
LINE
  5
26C
330
15F
100
AcDbEntity
  8
Layer 01
100
AcDbLine
 10
86.35469460732976
 20
55.0
 30
-116.6574641844
 11
86.35469460732976
 21
53.5
 31
-116.6574641844
  0
ARC
  5
26D
330
15F
100
AcDbEntity
  8
Layer 01
100
AcDbCircle
 10
72.5
 20
125.5736835487
 30
-54.25
 40
1.299999999999999
210
0.0
220
-1.0
230
0.0
100
AcDbArc
 50
239.9999999995637
 51
60.00000000176787
  0
LINE
  5
26E
330
15F
100
AcDbEntity
  8
Layer 01
100
AcDbLine
 10
71.84999999999998
 20
55.0
 30
124.4478505237802
 11
71.84999999999998
 21
53.5
 31
124.4478505237802
  0
LINE
  5
26F
330
15F
100
AcDbEntity
  8
Layer 01
100
AcDbLine
 10
73.62583302491976
 20
55.0
 30
124.9236835487
 11
73.62583302491976
 21
53.5
 31
124.9236835487
  0
LINE
  5
270
330
15F
100
AcDbEntity
  8
Layer 01
100
AcDbLine
 10
73.15000000000002
 20
55.0
 30
126.6995165736197
 11
73.15000000000002
 21
53.5
 31
126.6995165736197
  0
ARC
  5
271
330
15F
100
AcDbEntity
  8
Layer 01
100
AcDbCircle
 10
72.49999999999999
 20
125.5736835487
 30
-54.25
 40
1.299999999999999
210
0.0
220
-1.0
230
0.0
100
AcDbArc
 50
60.00000000176734
 51
239.9999999995643
  0
LINE
  5
272
330
15F
100
AcDbEntity
  8
Layer 01
100
AcDbLine
 10
71.37416697508023
 20
55.0
 30
126.2236835487
 11
71.37416697508023
 21
53.5
 31
126.2236835487
  0
ARC
  5
273
330
15F
100
AcDbEntity
  8
Layer 01
100
AcDbCircle
 10
58.97681324599
 20
132.4640913582
 30
-54.25
 40
1.300000000000006
210
0.0
220
-1.0
230
0.0
100
AcDbArc
 50
239.9999999999984
 51
59.99999999999841
  0
LINE
  5
274
330
15F
100
AcDbEntity
  8
Layer 01
100
AcDbLine
 10
60.10264627090976
 20
55.0
 30
131.8140913582
 11
60.10264627090976
 21
53.5
 31
131.8140913582
  0
ARC
  5
275
330
15F
100
AcDbEntity
  8
Layer 01
100
AcDbCircle
 10
58.97681324599
 20
132.4640913582
 30
-54.25
 40
1.300000000000006
210
0.0
220
-1.0
230
0.0
100
AcDbArc
 50
59.99999999999841
 51
239.9999999999984
  0
LINE
  5
276
330
15F
100
AcDbEntity
  8
Layer 01
100
AcDbLine
 10
57.85098022107024
 20
55.0
 30
133.1140913582
 11
57.85098022107024
 21
53.5
 31
133.1140913582
  0
ARC
  5
277
330
15F
100
AcDbEntity
  8
Layer 01
100
AcDbCircle
 10
-2.0
 20
-60.0
 30
-54.25
 40
1.299999999999997
210
0.0
220
-1.0
230
0.0
100
AcDbArc
 50
0.0
 51
180.0
  0
LINE
  5
278
330
15F
100
AcDbEntity
  8
Layer 01
100
AcDbLine
 10
-2.0
 20
55.0
 30
-58.7
 11
-2.0
 21
53.5
 31
-58.7
  0
ARC
  5
279
330
15F
100
AcDbEntity
  8
Layer 01
100
AcDbCircle
 10
-2.0
 20
-60.0
 30
-54.25
 40
1.299999999999997
210
0.0
220
-1.0
230
0.0
100
AcDbArc
 50
180.0
 51
0.0
  0
LINE
  5
27A
330
15F
100
AcDbEntity
  8
Layer 01
100
AcDbLine
 10
-2.0
 20
55.0
 30
-61.3
 11
-2.0
 21
53.5
 31
-61.3
  0
ARC
  5
27B
330
15F
100
AcDbEntity
  8
Layer 01
100
AcDbCircle
 10
28.0
 20
-60.0
 30
-54.25
 40
1.299999999999997
210
0.0
220
-1.0
230
0.0
100
AcDbArc
 50
0.0
 51
180.0
  0
LINE
  5
27C
330
15F
100
AcDbEntity
  8
Layer 01
100
AcDbLine
 10
28.0
 20
55.0
 30
-58.7
 11
28.0
 21
53.5
 31
-58.7
  0
ARC
  5
27D
330
15F
100
AcDbEntity
  8
Layer 01
100
AcDbCircle
 10
28.0
 20
-60.0
 30
-54.25
 40
1.299999999999997
210
0.0
220
-1.0
230
0.0
100
AcDbArc
 50
180.0
 51
0.0
  0
LINE
  5
27E
330
15F
100
AcDbEntity
  8
Layer 01
100
AcDbLine
 10
28.0
 20
55.0
 30
-61.3
 11
28.0
 21
53.5
 31
-61.3
  0
ARC
  5
27F
330
15F
100
AcDbEntity
  8
Layer 01
100
AcDbCircle
 10
-2.0
 20
60.0
 30
-54.25
 40
1.299999999999997
210
0.0
220
-1.0
230
0.0
100
AcDbArc
 50
0.0
 51
180.0
  0
LINE
  5
280
330
15F
100
AcDbEntity
  8
Layer 01
100
AcDbLine
 10
-2.0
 20
55.0
 30
61.3
 11
-2.0
 21
53.5
 31
61.3
  0
ARC
  5
281
330
15F
100
AcDbEntity
  8
Layer 01
100
AcDbCircle
 10
-2.0
 20
60.0
 30
-54.25
 40
1.299999999999997
210
0.0
220
-1.0
230
0.0
100
AcDbArc
 50
180.0
 51
0.0
  0
LINE
  5
282
330
15F
100
AcDbEntity
  8
Layer 01
100
AcDbLine
 10
-2.0
 20
55.0
 30
58.7
 11
-2.0
 21
53.5
 31
58.7
  0
ARC
  5
283
330
15F
100
AcDbEntity
  8
Layer 01
100
AcDbCircle
 10
-8.0
 20
100.0
 30
-54.25
 40
1.299999999999997
210
0.0
220
-1.0
230
0.0
100
AcDbArc
 50
0.0
 51
180.0
  0
LINE
  5
284
330
15F
100
AcDbEntity
  8
Layer 01
100
AcDbLine
 10
-8.0
 20
55.0
 30
101.3
 11
-8.0
 21
53.5
 31
101.3
  0
ARC
  5
285
330
15F
100
AcDbEntity
  8
Layer 01
100
AcDbCircle
 10
-8.0
 20
100.0
 30
-54.25
 40
1.299999999999997
210
0.0
220
-1.0
230
0.0
100
AcDbArc
 50
180.0
 51
0.0
  0
LINE
  5
286
330
15F
100
AcDbEntity
  8
Layer 01
100
AcDbLine
 10
-8.0
 20
55.0
 30
98.7
 11
-8.0
 21
53.5
 31
98.7
  0
ARC
  5
287
330
15F
100
AcDbEntity
  8
Layer 01
100
AcDbCircle
 10
8.0
 20
100.0
 30
-54.25
 40
1.299999999999997
210
0.0
220
-1.0
230
0.0
100
AcDbArc
 50
0.0
 51
180.0
  0
LINE
  5
288
330
15F
100
AcDbEntity
  8
Layer 01
100
AcDbLine
 10
8.0
 20
55.0
 30
101.3
 11
8.0
 21
53.5
 31
101.3
  0
ARC
  5
289
330
15F
100
AcDbEntity
  8
Layer 01
100
AcDbCircle
 10
8.0
 20
100.0
 30
-54.25
 40
1.299999999999997
210
0.0
220
-1.0
230
0.0
100
AcDbArc
 50
180.0
 51
0.0
  0
LINE
  5
28A
330
15F
100
AcDbEntity
  8
Layer 01
100
AcDbLine
 10
8.0
 20
55.0
 30
98.7
 11
8.0
 21
53.5
 31
98.7
  0
ARC
  5
28B
330
15F
100
AcDbEntity
  8
Layer 01
100
AcDbCircle
 10
-17.5
 20
135.0
 30
-54.25
 40
1.300000000000011
210
0.0
220
-1.0
230
0.0
100
AcDbArc
 50
0.0
 51
180.0
  0
LINE
  5
28C
330
15F
100
AcDbEntity
  8
Layer 01
100
AcDbLine
 10
-17.5
 20
55.0
 30
136.3
 11
-17.5
 21
53.5
 31
136.3
  0
ARC
  5
28D
330
15F
100
AcDbEntity
  8
Layer 01
100
AcDbCircle
 10
-17.5
 20
135.0
 30
-54.25
 40
1.300000000000011
210
0.0
220
-1.0
230
0.0
100
AcDbArc
 50
180.0
 51
0.0
  0
LINE
  5
28E
330
15F
100
AcDbEntity
  8
Layer 01
100
AcDbLine
 10
-17.5
 20
55.0
 30
133.7
 11
-17.5
 21
53.5
 31
133.7
  0
ARC
  5
28F
330
15F
100
AcDbEntity
  8
Layer 01
100
AcDbCircle
 10
-51.5
 20
-136.0
 30
-54.25
 40
1.300000000000011
210
0.0
220
-1.0
230
0.0
100
AcDbArc
 50
0.0
 51
180.0
  0
LINE
  5
290
330
15F
100
AcDbEntity
  8
Layer 01
100
AcDbLine
 10
-51.5
 20
55.0
 30
-134.7
 11
-51.5
 21
53.5
 31
-134.7
  0
ARC
  5
291
330
15F
100
AcDbEntity
  8
Layer 01
100
AcDbCircle
 10
-51.5
 20
-136.0
 30
-54.25
 40
1.300000000000011
210
0.0
220
-1.0
230
0.0
100
AcDbArc
 50
180.0
 51
0.0
  0
LINE
  5
292
330
15F
100
AcDbEntity
  8
Layer 01
100
AcDbLine
 10
-51.5
 20
55.0
 30
-137.3
 11
-51.5
 21
53.5
 31
-137.3
  0
ARC
  5
293
330
15F
100
AcDbEntity
  8
Layer 01
100
AcDbCircle
 10
-7.0
 20
-82.0
 30
-54.25
 40
1.299999999999997
210
0.0
220
-1.0
230
0.0
100
AcDbArc
 50
0.0
 51
180.0
  0
LINE
  5
294
330
15F
100
AcDbEntity
  8
Layer 01
100
AcDbLine
 10
-7.0
 20
55.0
 30
-80.7
 11
-7.0
 21
53.5
 31
-80.7
  0
ARC
  5
295
330
15F
100
AcDbEntity
  8
Layer 01
100
AcDbCircle
 10
-7.0
 20
-82.0
 30
-54.25
 40
1.299999999999997
210
0.0
220
-1.0
230
0.0
100
AcDbArc
 50
180.0
 51
0.0
  0
LINE
  5
296
330
15F
100
AcDbEntity
  8
Layer 01
100
AcDbLine
 10
-7.0
 20
55.0
 30
-83.3
 11
-7.0
 21
53.5
 31
-83.3
  0
ARC
  5
297
330
15F
100
AcDbEntity
  8
Layer 01
100
AcDbCircle
 10
-17.5
 20
121.0
 30
-54.25
 40
1.299999999999997
210
0.0
220
-1.0
230
0.0
100
AcDbArc
 50
0.0
 51
180.0
  0
LINE
  5
298
330
15F
100
AcDbEntity
  8
Layer 01
100
AcDbLine
 10
-17.5
 20
55.0
 30
122.3
 11
-17.5
 21
53.5
 31
122.3
  0
ARC
  5
299
330
15F
100
AcDbEntity
  8
Layer 01
100
AcDbCircle
 10
-17.5
 20
121.0
 30
-54.25
 40
1.299999999999997
210
0.0
220
-1.0
230
0.0
100
AcDbArc
 50
180.0
 51
0.0
  0
LINE
  5
29A
330
15F
100
AcDbEntity
  8
Layer 01
100
AcDbLine
 10
-17.5
 20
55.0
 30
119.7
 11
-17.5
 21
53.5
 31
119.7
  0
ARC
  5
29B
330
15F
100
AcDbEntity
  8
Layer 01
100
AcDbCircle
 10
-51.5
 20
-120.0
 30
-54.25
 40
1.299999999999997
210
0.0
220
-1.0
230
0.0
100
AcDbArc
 50
0.0
 51
180.0
  0
LINE
  5
29C
330
15F
100
AcDbEntity
  8
Layer 01
100
AcDbLine
 10
-51.5
 20
55.0
 30
-118.7
 11
-51.5
 21
53.5
 31
-118.7
  0
ARC
  5
29D
330
15F
100
AcDbEntity
  8
Layer 01
100
AcDbCircle
 10
-51.5
 20
-120.0
 30
-54.25
 40
1.299999999999997
210
0.0
220
-1.0
230
0.0
100
AcDbArc
 50
180.0
 51
0.0
  0
LINE
  5
29E
330
15F
100
AcDbEntity
  8
Layer 01
100
AcDbLine
 10
-51.5
 20
55.0
 30
-121.3
 11
-51.5
 21
53.5
 31
-121.3
  0
ARC
  5
29F
330
15F
100
AcDbEntity
  8
Layer 01
100
AcDbCircle
 10
0.0
 20
0.0
 30
-54.25
 40
7.5
210
0.0
220
-1.0
230
0.0
100
AcDbArc
 50
90.0
 51
270.0
  0
LINE
  5
2A0
330
15F
100
AcDbEntity
  8
Layer 01
100
AcDbLine
 10
-7.5
 20
55.0
 30
0.0
 11
-7.5
 21
53.5
 31
0.0
  0
ARC
  5
2A1
330
15F
100
AcDbEntity
  8
Layer 01
100
AcDbCircle
 10
0.0
 20
0.0
 30
-54.25
 40
7.5
210
0.0
220
-1.0
230
0.0
100
AcDbArc
 50
270.0
 51
89.99999999999999
  0
LINE
  5
2A2
330
15F
100
AcDbEntity
  8
Layer 01
100
AcDbLine
 10
7.5
 20
55.0
 30
0.0
 11
7.5
 21
53.5
 31
0.0
  0
ARC
  5
2A3
330
15F
100
AcDbEntity
  8
Layer 01
100
AcDbCircle
 10
56.5
 20
-45.94057108884
 30
-130.399986549
 40
3.0
210
1.0
220
0.0
230
0.0
100
AcDbArc
 50
110.712371954978
 51
180.0
  0
ARC
  5
2A4
330
15F
100
AcDbEntity
  8
Layer 01
100
AcDbCircle
 10
-56.5
 20
-23.94057108884
 30
130.399986549
 40
3.0
210
-1.0
220
0.0
230
0.0
100
AcDbArc
 50
290.7123719549779
 51
0.0
  0
LINE
  5
2A5
330
15F
100
AcDbEntity
  8
Layer 01
100
AcDbLine
 10
-130.399986549
 20
57.53051524083506
 30
-27.53751956475307
 11
-130.399986549
 21
55.4389695183137
 31
-26.74667413700668
  0
LINE
  5
2A6
330
15F
100
AcDbEntity
  8
Layer 01
100
AcDbLine
 10
-130.399986549
 20
57.53051524083506
 30
-42.34362261292693
 11
-130.399986549
 21
55.43896951831369
 31
-43.13446804067333
  0
ARC
  5
2A7
330
15F
100
AcDbEntity
  8
Layer 01
100
AcDbCircle
 10
57.0
 20
-40.94057108884
 30
-130.399986549
 40
1.5
210
1.0
220
0.0
230
0.0
100
AcDbArc
 50
290.7123719546399
 51
0.0
  0
LINE
  5
2A8
330
15F
100
AcDbEntity
  8
Layer 01
100
AcDbLine
 10
-136.399986549
 20
58.5
 30
-34.94057108884
 11
-133.149986549
 21
58.5
 31
-34.94057108884
  0
LINE
  5
2A9
330
15F
100
AcDbEntity
  8
Layer 01
100
AcDbLine
 10
-127.649986549
 20
58.5
 30
-34.94057108884
 11
-124.399986549
 21
58.5
 31
-34.94057108884
  0
LINE
  5
2AA
330
15F
100
AcDbEntity
  8
Layer 01
100
AcDbLine
 10
-130.399986549
 20
58.5
 30
-28.94057108884001
 11
-130.399986549
 21
58.5
 31
-32.19057108884
  0
LINE
  5
2AB
330
15F
100
AcDbEntity
  8
Layer 01
100
AcDbLine
 10
-130.399986549
 20
58.5
 30
-37.69057108884
 11
-130.399986549
 21
58.5
 31
-40.94057108884
  0
ARC
  5
2AC
330
15F
100
AcDbEntity
  8
Layer 01
100
AcDbCircle
 10
130.399986549
 20
-34.94057108883999
 30
59.25
 40
2.75
210
0.0
220
1.0
230
0.0
100
AcDbArc
 50
0.0
 51
180.0
  0
LINE
  5
2AD
330
15F
100
AcDbEntity
  8
Layer 01
100
AcDbLine
 10
-130.399986549
 20
58.5
 30
-32.19057108883999
 11
-130.399986549
 21
60.0
 31
-32.19057108883999
  0
LINE
  5
2AE
330
15F
100
AcDbEntity
  8
Layer 01
100
AcDbLine
 10
-136.399986549
 20
60.0
 30
-34.94057108884
 11
-133.149986549
 21
60.0
 31
-34.94057108884
  0
LINE
  5
2AF
330
15F
100
AcDbEntity
  8
Layer 01
100
AcDbLine
 10
-127.649986549
 20
60.0
 30
-34.94057108884
 11
-124.399986549
 21
60.0
 31
-34.94057108884
  0
LINE
  5
2B0
330
15F
100
AcDbEntity
  8
Layer 01
100
AcDbLine
 10
-130.399986549
 20
60.0
 30
-28.94057108884001
 11
-130.399986549
 21
60.0
 31
-32.19057108884
  0
LINE
  5
2B1
330
15F
100
AcDbEntity
  8
Layer 01
100
AcDbLine
 10
-130.399986549
 20
60.0
 30
-37.69057108884
 11
-130.399986549
 21
60.0
 31
-40.94057108884001
  0
ARC
  5
2B2
330
15F
100
AcDbEntity
  8
Layer 01
100
AcDbCircle
 10
130.399986549
 20
-34.94057108884
 30
59.25
 40
2.75
210
0.0
220
1.0
230
0.0
100
AcDbArc
 50
180.0
 51
0.0
  0
LINE
  5
2B3
330
15F
100
AcDbEntity
  8
Layer 01
100
AcDbLine
 10
-130.399986549
 20
58.5
 30
-37.69057108884
 11
-130.399986549
 21
60.0
 31
-37.69057108884
  0
ARC
  5
2B4
330
15F
100
AcDbEntity
  8
Layer 01
100
AcDbCircle
 10
57.0
 20
-40.94057108884
 30
-130.399986549
 40
3.0
210
1.0
220
0.0
230
0.0
100
AcDbArc
 50
290.712371954978
 51
0.0
  0
ARC
  5
2B5
330
15F
100
AcDbEntity
  8
Layer 01
100
AcDbCircle
 10
-57.0
 20
-28.94057108884
 30
130.399986549
 40
3.0
210
-1.0
220
0.0
230
0.0
100
AcDbArc
 50
110.7123719549779
 51
180.0
  0
LINE
  5
2B6
330
15F
100
AcDbEntity
  8
Layer 01
100
AcDbLine
 10
-130.399986549
 20
58.06103048168631
 30
-26.13446804067332
 11
-130.399986549
 21
55.96948475916493
 31
-25.34362261292693
  0
LINE
  5
2B7
330
15F
100
AcDbEntity
  8
Layer 01
100
AcDbLine
 10
-130.399986549
 20
58.06103048168631
 30
-43.74667413700669
 11
-130.399986549
 21
55.96948475916494
 31
-44.53751956475308
  0
ARC
  5
2B8
330
15F
100
AcDbEntity
  8
Layer 01
100
AcDbCircle
 10
56.5
 20
-45.94057108884
 30
-130.399986549
 40
1.5
210
1.0
220
0.0
230
0.0
100
AcDbArc
 50
110.71237195464
 51
180.0
  0
ARC
  5
2B9
330
15F
100
AcDbEntity
  8
Layer 01
100
AcDbCircle
 10
-56.5
 20
-23.94057108884
 30
130.399986549
 40
1.5
210
-1.0
220
0.0
230
0.0
100
AcDbArc
 50
290.7123719546405
 51
0.0
  0
ARC
  5
2BA
330
15F
100
AcDbEntity
  8
Layer 01
100
AcDbCircle
 10
-57.0
 20
-28.94057108884
 30
130.399986549
 40
1.5
210
-1.0
220
0.0
230
0.0
100
AcDbArc
 50
110.7123719546403
 51
180.0
  0
ARC
  5
2BB
330
15F
100
AcDbEntity
  8
Layer 01
100
AcDbCircle
 10
-95.45941546018
 20
-95.45941546018
 30
53.5
 40
11.0
210
0.0
220
1.0
230
0.0
100
AcDbArc
 50
197.5248635251139
 51
239.9999999999989
  0
ARC
  5
2BC
330
15F
100
AcDbEntity
  8
Layer 01
100
AcDbCircle
 10
-56.5
 20
-119.3999865490195
 30
-34.94057108883634
 40
3.0
210
-0.8660254037844289
220
0.0
230
-0.5000000000000168
100
AcDbArc
 50
309.2348071747551
 51
359.9999999998537
  0
ARC
  5
2BD
330
15F
100
AcDbEntity
  8
Layer 01
100
AcDbCircle
 10
-56.5
 20
45.94057108883634
 30
-130.3999865490195
 40
3.0
210
-0.5000000000000168
220
0.0
230
0.8660254037844289
100
AcDbArc
 50
290.7123719549501
 51
359.9999999999494
  0
ARC
  5
2BE
330
15F
100
AcDbEntity
  8
Layer 01
100
AcDbCircle
 10
-95.45941546018
 20
-95.45941546018
 30
53.5
 40
11.0
210
0.0
220
1.0
230
0.0
100
AcDbArc
 50
239.9999999999428
 51
282.6669034090471
  0
ARC
  5
2BF
330
15F
100
AcDbEntity
  8
Layer 01
100
AcDbCircle
 10
56.5
 20
-141.3999865490195
 30
34.94057108883634
 40
3.0
210
0.8660254037844289
220
0.0
230
0.5000000000000168
100
AcDbArc
 50
110.7123719551131
 51
180.000000000045
  0
ARC
  5
2C0
330
15F
100
AcDbEntity
  8
Layer 01
100
AcDbCircle
 10
56.5
 20
23.94057108883634
 30
130.3999865490196
 40
3.0
210
0.5000000000000168
220
0.0
230
-0.8660254037844289
100
AcDbArc
 50
110.7123719549499
 51
179.9999999999497
  0
LINE
  5
2C1
330
15F
100
AcDbEntity
  8
Layer 01
100
AcDbLine
 10
89.04818477479556
 20
57.53051524083465
 30
-99.16094122222367
 11
88.36329254390098
 21
55.43896951831506
 31
-99.55636393609655
  0
LINE
  5
2C2
330
15F
100
AcDbEntity
  8
Layer 01
100
AcDbLine
 10
101.8706461455644
 20
57.53051524083467
 30
-91.75788969813632
 11
102.555538376459
 21
55.43896951831505
 31
-91.36246698426345
  0
ARC
  5
2C3
330
15F
100
AcDbEntity
  8
Layer 01
100
AcDbCircle
 10
-95.45941546018
 20
-95.45941546018
 30
58.5
 40
6.0
210
0.0
220
1.0
230
0.0
100
AcDbArc
 50
59.99999999996832
 51
119.75311181975
  0
ARC
  5
2C4
330
15F
100
AcDbEntity
  8
Layer 01
100
AcDbCircle
 10
-57.0
 20
-124.3999865490195
 30
-34.94057108883634
 40
1.5
210
-0.8660254037844289
220
0.0
230
-0.5000000000000168
100
AcDbArc
 50
110.7123719548919
 51
180.0000000002193
  0
ARC
  5
2C5
330
15F
100
AcDbEntity
  8
Layer 01
100
AcDbCircle
 10
-57.0
 20
40.94057108883634
 30
-130.3999865490195
 40
1.5
210
-0.5000000000000168
220
0.0
230
0.8660254037844289
100
AcDbArc
 50
110.7123719546239
 51
179.9999999998893
  0
LINE
  5
2C6
330
15F
100
AcDbEntity
  8
Layer 01
100
AcDbLine
 10
98.45941546018962
 20
58.5
 30
-100.6555678828945
 11
96.83441546018497
 21
58.5
 31
-97.84098532058711
  0
LINE
  5
2C7
330
15F
100
AcDbEntity
  8
Layer 01
100
AcDbLine
 10
94.08441546018679
 20
58.5
 30
-93.07784559977607
 11
92.45941546018648
 21
58.5
 31
-90.26326303747624
  0
LINE
  5
2C8
330
15F
100
AcDbEntity
  8
Layer 01
100
AcDbLine
 10
90.26326303747396
 20
58.5
 30
-98.45941546018685
 11
93.07784559977752
 21
58.5
 31
-96.8344154601844
  0
LINE
  5
2C9
330
15F
100
AcDbEntity
  8
Layer 01
100
AcDbLine
 10
97.84098532058854
 20
58.5
 30
-94.08441546018624
 11
100.6555678828922
 21
58.5
 31
-92.45941546018375
  0
ARC
  5
2CA
330
15F
100
AcDbEntity
  8
Layer 01
100
AcDbCircle
 10
-95.45941546018
 20
-95.45941546018
 30
59.25
 40
2.75
210
0.0
220
1.0
230
0.0
100
AcDbArc
 50
239.999999999999
 51
59.99999999999899
  0
LINE
  5
2CB
330
15F
100
AcDbEntity
  8
Layer 01
100
AcDbLine
 10
93.07784559977281
 20
58.5
 30
-96.83441546018004
 11
93.07784559977281
 21
60.0
 31
-96.83441546018004
  0
LINE
  5
2CC
330
15F
100
AcDbEntity
  8
Layer 01
100
AcDbLine
 10
98.4594154601896
 20
60.0
 30
-100.6555678828944
 11
96.83441546018497
 21
60.0
 31
-97.84098532058714
  0
LINE
  5
2CD
330
15F
100
AcDbEntity
  8
Layer 01
100
AcDbLine
 10
94.08441546018679
 20
60.0
 30
-93.07784559977608
 11
92.45941546018645
 21
60.0
 31
-90.26326303747621
  0
LINE
  5
2CE
330
15F
100
AcDbEntity
  8
Layer 01
100
AcDbLine
 10
90.26326303747396
 20
60.0
 30
-98.45941546018685
 11
93.07784559977752
 21
60.0
 31
-96.8344154601844
  0
LINE
  5
2CF
330
15F
100
AcDbEntity
  8
Layer 01
100
AcDbLine
 10
97.84098532058854
 20
60.0
 30
-94.08441546018622
 11
100.6555678828922
 21
60.0
 31
-92.45941546018375
  0
ARC
  5
2D0
330
15F
100
AcDbEntity
  8
Layer 01
100
AcDbCircle
 10
-95.45941546018
 20
-95.45941546018
 30
59.25
 40
2.75
210
0.0
220
1.0
230
0.0
100
AcDbArc
 50
59.99999999999899
 51
239.999999999999
  0
LINE
  5
2D1
330
15F
100
AcDbEntity
  8
Layer 01
100
AcDbLine
 10
97.84098532058718
 20
58.5
 30
-94.08441546017995
 11
97.84098532058718
 21
60.0
 31
-94.08441546017995
  0
ARC
  5
2D2
330
15F
100
AcDbEntity
  8
Layer 01
100
AcDbCircle
 10
-95.45941546018
 20
-95.45941546018
 30
60.0
 40
6.0
210
0.0
220
1.0
230
0.0
100
AcDbArc
 50
59.9999999999682
 51
119.7515943221345
  0
ARC
  5
2D3
330
15F
100
AcDbEntity
  8
Layer 01
100
AcDbCircle
 10
-57.0
 20
-124.3999865490195
 30
-34.94057108883634
 40
3.0
210
-0.8660254037844289
220
0.0
230
-0.5000000000000168
100
AcDbArc
 50
110.7123719549112
 51
180.0000000001096
  0
ARC
  5
2D4
330
15F
100
AcDbEntity
  8
Layer 01
100
AcDbCircle
 10
-57.0
 20
40.94057108883634
 30
-130.3999865490195
 40
3.0
210
-0.5000000000000168
220
0.0
230
0.8660254037844289
100
AcDbArc
 50
110.7123719549821
 51
179.9999999999446
  0
ARC
  5
2D5
330
15F
100
AcDbEntity
  8
Layer 01
100
AcDbCircle
 10
-95.45941546018
 20
-95.45941546018
 30
60.0
 40
6.0
210
0.0
220
1.0
230
0.0
100
AcDbArc
 50
0.3697996918431668
 51
59.99999999999892
  0
ARC
  5
2D6
330
15F
100
AcDbEntity
  8
Layer 01
100
AcDbCircle
 10
57.0
 20
-136.3999865490195
 30
34.94057108883634
 40
3.0
210
0.8660254037844289
220
0.0
230
0.5000000000000168
100
AcDbArc
 50
290.7123719550526
 51
339.4248587792833
  0
ARC
  5
2D7
330
15F
100
AcDbEntity
  8
Layer 01
100
AcDbCircle
 10
57.0
 20
28.94057108883634
 30
130.3999865490195
 40
3.0
210
0.5000000000000168
220
0.0
230
-0.8660254037844289
100
AcDbArc
 50
290.7123719549818
 51
359.9999999999442
  0
LINE
  5
2D8
330
15F
100
AcDbEntity
  8
Layer 01
100
AcDbLine
 10
87.83310651212423
 20
58.06103048168651
 30
-99.86246698426343
 11
87.14821428123028
 21
55.96948475916878
 31
-100.257889698136
  0
LINE
  5
2D9
330
15F
100
AcDbEntity
  8
Layer 01
100
AcDbLine
 10
99.8624669842628
 20
58.06103048168998
 30
-103.0857244082346
 11
100.1046674117684
 21
56.77993748837082
 31
-103.5052278542892
  0
LINE
  5
2DA
330
15F
100
AcDbEntity
  8
Layer 01
100
AcDbLine
 10
100.1046674117684
 20
56.77993748837083
 30
-103.5052278542892
 11
100.2578896981347
 21
55.96948475917556
 31
-103.7706166391275
  0
LINE
  5
2DB
330
15F
100
AcDbEntity
  8
Layer 01
100
AcDbLine
 10
103.0857244082358
 20
58.06103048168651
 30
-91.05636393609656
 11
103.7706166391297
 21
55.96948475916878
 31
-90.66094122222403
  0
ARC
  5
2DC
330
15F
100
AcDbEntity
  8
Layer 01
100
AcDbCircle
 10
-95.45941546018
 20
-95.45941546018
 30
55.0
 40
11.0
210
0.0
220
1.0
230
0.0
100
AcDbArc
 50
197.5497344989172
 51
239.9999999999989
  0
ARC
  5
2DD
330
15F
100
AcDbEntity
  8
Layer 01
100
AcDbCircle
 10
-56.5
 20
45.94057108883634
 30
-130.3999865490195
 40
1.5
210
-0.5000000000000168
220
0.0
230
0.8660254037844289
100
AcDbArc
 50
290.7123719544832
 51
359.9999999998988
  0
ARC
  5
2DE
330
15F
100
AcDbEntity
  8
Layer 01
100
AcDbCircle
 10
-95.45941546018
 20
-95.45941546018
 30
55.0
 40
11.0
210
0.0
220
1.0
230
0.0
100
AcDbArc
 50
239.9999999999989
 51
282.787932564329
  0
ARC
  5
2DF
330
15F
100
AcDbEntity
  8
Layer 01
100
AcDbCircle
 10
56.5
 20
23.94057108883634
 30
130.3999865490196
 40
1.5
210
0.5000000000000168
220
0.0
230
-0.8660254037844289
100
AcDbArc
 50
110.7123719544832
 51
179.9999999998996
  0
ARC
  5
2E0
330
15F
100
AcDbEntity
  8
Layer 01
100
AcDbCircle
 10
-95.45941546018
 20
-95.45941546018
 30
58.5
 40
6.0
210
0.0
220
1.0
230
0.0
100
AcDbArc
 50
0.3744221879911533
 51
59.99999999999892
  0
ARC
  5
2E1
330
15F
100
AcDbEntity
  8
Layer 01
100
AcDbCircle
 10
57.0
 20
28.94057108883634
 30
130.3999865490195
 40
1.5
210
0.5000000000000168
220
0.0
230
-0.8660254037844289
100
AcDbArc
 50
290.7123719546237
 51
359.9999999998885
  0
ARC
  5
2E2
330
15F
100
AcDbEntity
  8
Layer 01
100
AcDbCircle
 10
-34.94057108884
 20
130.399986549
 30
53.5
 40
11.00000000000001
210
0.0
220
1.0
230
0.0
100
AcDbArc
 50
351.91121550194
 51
120.0000000000011
  0
ARC
  5
2E3
330
15F
100
AcDbEntity
  8
Layer 01
100
AcDbCircle
 10
-56.5
 20
45.94057108883099
 30
-130.3999865490024
 40
3.0
210
-0.5000000000000168
220
0.0
230
-0.8660254037844289
100
AcDbArc
 50
290.7123719549962
 51
0.0000000003498441
  0
ARC
  5
2E4
330
15F
100
AcDbEntity
  8
Layer 01
100
AcDbCircle
 10
-34.94057108884
 20
130.399986549
 30
53.5
 40
11.0
210
0.0
220
1.0
230
0.0
100
AcDbArc
 50
120.0000000000011
 51
248.0603076923089
  0
ARC
  5
2E5
330
15F
100
AcDbEntity
  8
Layer 01
100
AcDbCircle
 10
56.5
 20
23.940571088831
 30
130.3999865490024
 40
3.0
210
0.5000000000000168
220
0.0
230
0.8660254037844289
100
AcDbArc
 50
110.7123719549962
 51
180.0000000003497
  0
LINE
  5
2E6
330
15F
100
AcDbEntity
  8
Layer 01
100
AcDbLine
 10
41.35180177422416
 20
57.53051524083548
 30
126.6984607869565
 11
42.03669400511973
 21
55.4389695183128
 31
126.303038073083
  0
LINE
  5
2E7
330
15F
100
AcDbEntity
  8
Layer 01
100
AcDbLine
 10
38.6420968508835
 20
57.53051524083548
 30
136.8112172343842
 11
39.03751956475696
 21
55.4389695183128
 31
137.4961094652797
  0
LINE
  5
2E8
330
15F
100
AcDbEntity
  8
Layer 01
100
AcDbLine
 10
28.52934040345581
 20
57.53051524083548
 30
134.1015123110435
 11
27.84444817256024
 21
55.43896951831279
 31
134.496935024917
  0
LINE
  5
2E9
330
15F
100
AcDbEntity
  8
Layer 01
100
AcDbLine
 10
31.23904532679648
 20
57.53051524083548
 30
123.9887558636158
 11
30.84362261292302
 21
55.43896951831279
 31
123.3038636327203
  0
ARC
  5
2EA
330
15F
100
AcDbEntity
  8
Layer 01
100
AcDbCircle
 10
-34.94057108884
 20
130.399986549
 30
58.5
 40
6.0
210
0.0
220
1.0
230
0.0
100
AcDbArc
 50
300.0000000000011
 51
120.0000000000011
  0
ARC
  5
2EB
330
15F
100
AcDbEntity
  8
Layer 01
100
AcDbCircle
 10
57.0
 20
124.3999865490024
 30
-34.94057108883098
 40
1.5
210
0.8660254037844289
220
0.0
230
-0.5000000000000168
100
AcDbArc
 50
290.7123719546574
 51
0.0000000002192971
  0
ARC
  5
2EC
330
15F
100
AcDbEntity
  8
Layer 01
100
AcDbCircle
 10
-57.0
 20
40.94057108883099
 30
-130.3999865490024
 40
1.5
210
-0.5000000000000168
220
0.0
230
-0.8660254037844289
100
AcDbArc
 50
110.7123719546574
 51
180.0000000002193
  0
LINE
  5
2ED
330
15F
100
AcDbEntity
  8
Layer 01
100
AcDbLine
 10
37.94057108883723
 20
58.5
 30
135.5961389717016
 11
36.31557108883689
 21
58.5
 31
132.7815564094017
  0
LINE
  5
2EE
330
15F
100
AcDbEntity
  8
Layer 01
100
AcDbLine
 10
33.56557108884308
 20
58.5
 30
128.0184166885983
 11
31.94057108884276
 21
58.5
 31
125.2038341262984
  0
LINE
  5
2EF
330
15F
100
AcDbEntity
  8
Layer 01
100
AcDbLine
 10
40.13672351154156
 20
58.5
 30
127.3999865490028
 11
37.3221409492418
 21
58.5
 31
129.024986549003
  0
LINE
  5
2F0
330
15F
100
AcDbEntity
  8
Layer 01
100
AcDbLine
 10
32.55900122843823
 20
58.5
 30
131.7749865489969
 11
29.74441866613844
 21
58.5
 31
133.3999865489972
  0
ARC
  5
2F1
330
15F
100
AcDbEntity
  8
Layer 01
100
AcDbCircle
 10
-34.94057108884
 20
130.399986549
 30
59.25
 40
2.749999999999994
210
0.0
220
1.0
230
0.0
100
AcDbArc
 50
120.0000000000008
 51
300.0000000000008
  0
LINE
  5
2F2
330
15F
100
AcDbEntity
  8
Layer 01
100
AcDbLine
 10
37.32214094924718
 20
58.5
 30
129.024986549
 11
37.32214094924718
 21
60.0
 31
129.024986549
  0
LINE
  5
2F3
330
15F
100
AcDbEntity
  8
Layer 01
100
AcDbLine
 10
37.9405710888372
 20
60.0
 30
135.5961389717016
 11
36.31557108883689
 21
60.0
 31
132.7815564094017
  0
LINE
  5
2F4
330
15F
100
AcDbEntity
  8
Layer 01
100
AcDbLine
 10
33.56557108884306
 20
60.0
 30
128.0184166885982
 11
31.94057108884276
 21
60.0
 31
125.2038341262984
  0
LINE
  5
2F5
330
15F
100
AcDbEntity
  8
Layer 01
100
AcDbLine
 10
40.13672351154156
 20
60.0
 30
127.3999865490028
 11
37.3221409492418
 21
60.0
 31
129.024986549003
  0
LINE
  5
2F6
330
15F
100
AcDbEntity
  8
Layer 01
100
AcDbLine
 10
32.55900122843823
 20
60.0
 30
131.7749865489969
 11
29.74441866613844
 21
60.0
 31
133.3999865489972
  0
ARC
  5
2F7
330
15F
100
AcDbEntity
  8
Layer 01
100
AcDbCircle
 10
-34.94057108883999
 20
130.399986549
 30
59.25
 40
2.750000000000008
210
0.0
220
1.0
230
0.0
100
AcDbArc
 50
300.0000000000013
 51
120.0000000000013
  0
LINE
  5
2F8
330
15F
100
AcDbEntity
  8
Layer 01
100
AcDbLine
 10
32.55900122843281
 20
58.5
 30
131.7749865490001
 11
32.55900122843281
 21
60.0
 31
131.7749865490001
  0
ARC
  5
2F9
330
15F
100
AcDbEntity
  8
Layer 01
100
AcDbCircle
 10
-34.94057108884
 20
130.399986549
 30
60.0
 40
6.0
210
0.0
220
1.0
230
0.0
100
AcDbArc
 50
300.0000000000011
 51
120.0000000000011
  0
ARC
  5
2FA
330
15F
100
AcDbEntity
  8
Layer 01
100
AcDbCircle
 10
-57.0
 20
40.94057108883099
 30
-130.3999865490024
 40
3.0
210
-0.5000000000000168
220
0.0
230
-0.8660254037844289
100
AcDbArc
 50
110.7123719549115
 51
180.0000000001096
  0
ARC
  5
2FB
330
15F
100
AcDbEntity
  8
Layer 01
100
AcDbCircle
 10
-34.94057108884
 20
130.399986549
 30
60.0
 40
6.0
210
0.0
220
1.0
230
0.0
100
AcDbArc
 50
120.0000000000011
 51
300.0000000000011
  0
ARC
  5
2FC
330
15F
100
AcDbEntity
  8
Layer 01
100
AcDbCircle
 10
-57.0
 20
136.3999865490024
 30
34.94057108883099
 40
3.0
210
-0.8660254037844289
220
0.0
230
0.5000000000000168
100
AcDbArc
 50
110.7123719546187
 51
180.0000000001102
  0
ARC
  5
2FD
330
15F
100
AcDbEntity
  8
Layer 01
100
AcDbCircle
 10
57.0
 20
28.940571088831
 30
130.3999865490024
 40
3.0
210
0.5000000000000168
220
0.0
230
0.8660254037844289
100
AcDbArc
 50
290.7123719549112
 51
0.0000000001096486
  0
LINE
  5
2FE
330
15F
100
AcDbEntity
  8
Layer 01
100
AcDbLine
 10
30.53751956475859
 20
58.06103048169738
 30
122.7736776009478
 11
30.14209685088513
 21
55.96948475917468
 31
122.0887853700522
  0
LINE
  5
2FF
330
15F
100
AcDbEntity
  8
Layer 01
100
AcDbLine
 10
42.5668800368969
 20
58.06103048168304
 30
125.9969350249159
 11
43.25177226779248
 21
55.96948475916035
 31
125.6015123110424
  0
LINE
  5
300
330
15F
100
AcDbEntity
  8
Layer 01
100
AcDbLine
 10
27.31426214078309
 20
58.06103048168305
 30
134.8030380730841
 11
26.62936990988751
 21
55.96948475916034
 31
135.1984607869576
  0
ARC
  5
301
330
15F
100
AcDbEntity
  8
Layer 01
100
AcDbCircle
 10
-34.94057108884
 20
130.399986549
 30
55.0
 40
11.00000000000001
210
0.0
220
1.0
230
0.0
100
AcDbArc
 50
351.9059954449402
 51
120.0000000000011
  0
ARC
  5
302
330
15F
100
AcDbEntity
  8
Layer 01
100
AcDbCircle
 10
-56.5
 20
45.94057108883099
 30
-130.3999865490024
 40
1.5
210
-0.5000000000000168
220
0.0
230
-0.8660254037844289
100
AcDbArc
 50
290.7123719548279
 51
0.0000000006996881
  0
ARC
  5
303
330
15F
100
AcDbEntity
  8
Layer 01
100
AcDbCircle
 10
-34.94057108884
 20
130.399986549
 30
55.0
 40
11.0
210
0.0
220
1.0
230
0.0
100
AcDbArc
 50
119.9999999999079
 51
248.0674078936314
  0
ARC
  5
304
330
15F
100
AcDbEntity
  8
Layer 01
100
AcDbCircle
 10
-56.5
 20
141.3999865490024
 30
34.94057108883099
 40
1.5
210
-0.8660254037844289
220
0.0
230
0.5000000000000168
100
AcDbArc
 50
290.7123719554126
 51
0.0000000023536444
  0
ARC
  5
305
330
15F
100
AcDbEntity
  8
Layer 01
100
AcDbCircle
 10
56.5
 20
23.940571088831
 30
130.3999865490024
 40
1.5
210
0.5000000000000168
220
0.0
230
0.8660254037844289
100
AcDbArc
 50
110.7123719548277
 51
180.0000000006994
  0
ARC
  5
306
330
15F
100
AcDbEntity
  8
Layer 01
100
AcDbCircle
 10
-34.94057108884
 20
130.399986549
 30
58.5
 40
6.0
210
0.0
220
1.0
230
0.0
100
AcDbArc
 50
120.0000000000011
 51
300.0000000000011
  0
ARC
  5
307
330
15F
100
AcDbEntity
  8
Layer 01
100
AcDbCircle
 10
57.0
 20
28.940571088831
 30
130.3999865490024
 40
1.5
210
0.5000000000000168
220
0.0
230
0.8660254037844289
100
AcDbArc
 50
290.7123719546576
 51
0.0000000002192971
  0
ENDBLK
  5
309
330
15F
100
AcDbEntity
  8
0
100
AcDbBlockEnd
  0
BLOCK
  5
37D
330
30B
100
AcDbEntity
  8
0
100
AcDbBlockBegin
  2
D8107219_COP-ROSONE-1100
 70
     0
 10
0.0
 20
0.0
 30
0.0
  3
D8107219_COP-ROSONE-1100
  1

  0
SPLINE
  5
30C
330
30B
100
AcDbEntity
  8
Layer 01
100
AcDbSpline
210
0.0
220
0.0
230
1.0
 70
    24
 71
     2
 72
     6
 73
     3
 74
     0
 42
0.000000001
 43
0.0000000001
 40
-3.936650586199988
 40
-3.936650586199988
 40
-3.936650586199988
 40
0.0
 40
0.0
 40
0.0
 10
-4.0
 20
0.8
 30
-155.4504567971
 10
-4.0
 20
0.8
 30
-157.4187820902
 10
-4.0
 20
0.8
 30
-159.3871073833
  0
SPLINE
  5
30D
330
30B
100
AcDbEntity
  8
Layer 01
100
AcDbSpline
210
0.0
220
0.0
230
1.0
 70
    24
 71
     2
 72
     6
 73
     3
 74
     0
 42
0.000000001
 43
0.0000000001
 40
-0.5
 40
-0.5
 40
-0.5
 40
0.0
 40
0.0
 40
0.0
 10
-3.5
 20
0.8
 30
-155.4504567971
 10
-3.75
 20
0.8
 30
-155.4504567971
 10
-4.0
 20
0.8
 30
-155.4504567971
  0
SPLINE
  5
30E
330
30B
100
AcDbEntity
  8
Layer 01
100
AcDbSpline
210
0.0
220
0.0
230
1.0
 70
    24
 71
     2
 72
     6
 73
     3
 74
     0
 42
0.000000001
 43
0.0000000001
 40
-7.0
 40
-7.0
 40
-7.0
 40
0.0
 40
0.0
 40
0.0
 10
3.5
 20
0.8
 30
-155.4504567971
 10
0.0
 20
0.8
 30
-155.4504567971
 10
-3.5
 20
0.8
 30
-155.4504567971
  0
SPLINE
  5
30F
330
30B
100
AcDbEntity
  8
Layer 01
100
AcDbSpline
210
0.0
220
0.0
230
1.0
 70
    24
 71
     2
 72
     6
 73
     3
 74
     0
 42
0.000000001
 43
0.0000000001
 40
-0.5
 40
-0.5
 40
-0.5
 40
0.0
 40
0.0
 40
0.0
 10
4.0
 20
0.8
 30
-155.4504567971
 10
3.75
 20
0.8
 30
-155.4504567971
 10
3.5
 20
0.8
 30
-155.4504567971
  0
SPLINE
  5
310
330
30B
100
AcDbEntity
  8
Layer 01
100
AcDbSpline
210
0.0
220
0.0
230
1.0
 70
    24
 71
     2
 72
     6
 73
     3
 74
     0
 42
0.000000001
 43
0.0000000001
 40
-3.936650586199988
 40
-3.936650586199988
 40
-3.936650586199988
 40
0.0
 40
0.0
 40
0.0
 10
4.0
 20
0.8
 30
-159.3871073833
 10
4.0
 20
0.8
 30
-157.4187820902
 10
4.0
 20
0.8
 30
-155.4504567971
  0
ARC
  5
311
330
30B
100
AcDbEntity
  8
Layer 01
100
AcDbCircle
 10
-0.0000000000000298
 20
-0.0000000351778908
 30
0.8
 40
161.4999999647972
210
0.0
220
1.0
230
0.0
100
AcDbArc
 50
272.1558357803322
 51
267.8441642196679
  0
ARC
  5
312
330
30B
100
AcDbEntity
  8
Layer 01
100
AcDbCircle
 10
5.999999999904899
 20
-159.3871073833
 30
0.8
 40
1.999999999904899
210
0.0
220
1.0
230
0.0
100
AcDbArc
 50
180.0
 51
272.1558357826946
  0
SPLINE
  5
313
330
30B
100
AcDbEntity
  8
Layer 01
100
AcDbSpline
210
0.0
220
0.0
230
1.0
 70
    24
 71
     2
 72
     6
 73
     3
 74
     0
 42
0.000000001
 43
0.0000000001
 40
-0.8
 40
-0.8
 40
-0.8
 40
0.0
 40
0.0
 40
0.0
 10
-6.075235109718006
 20
0.0
 30
-161.3856918018
 10
-6.075235109718006
 20
0.4
 30
-161.3856918018
 10
-6.075235109718006
 20
0.8
 30
-161.3856918018
  0
ARC
  5
314
330
30B
100
AcDbEntity
  8
Layer 01
100
AcDbCircle
 10
5.999999999904899
 20
-159.3871073833
 30
0.0
 40
1.999999999904899
210
0.0
220
1.0
230
0.0
100
AcDbArc
 50
180.0
 51
272.1558357826946
  0
SPLINE
  5
315
330
30B
100
AcDbEntity
  8
Layer 01
100
AcDbSpline
210
0.0
220
0.0
230
1.0
 70
    24
 71
     2
 72
     6
 73
     3
 74
     0
 42
0.000000001
 43
0.0000000001
 40
-0.8
 40
-0.8
 40
-0.8
 40
0.0
 40
0.0
 40
0.0
 10
-4.0
 20
0.8
 30
-159.3871073833
 10
-4.0
 20
0.4
 30
-159.3871073833
 10
-4.0
 20
0.0
 30
-159.3871073833
  0
SPLINE
  5
316
330
30B
100
AcDbEntity
  8
Layer 01
100
AcDbSpline
210
0.0
220
0.0
230
1.0
 70
    24
 71
     2
 72
     6
 73
     3
 74
     0
 42
0.000000001
 43
0.0000000001
 40
-0.8
 40
-0.8
 40
-0.8
 40
0.0
 40
0.0
 40
0.0
 10
6.075235109718022
 20
0.0
 30
-161.3856918018
 10
6.075235109718022
 20
0.4
 30
-161.3856918018
 10
6.075235109718022
 20
0.8
 30
-161.3856918018
  0
ARC
  5
317
330
30B
100
AcDbEntity
  8
Layer 01
100
AcDbCircle
 10
-5.999999999904882
 20
-159.3871073833
 30
0.8
 40
1.999999999904882
210
0.0
220
1.0
230
0.0
100
AcDbArc
 50
267.8441642173041
 51
0.0
  0
SPLINE
  5
318
330
30B
100
AcDbEntity
  8
Layer 01
100
AcDbSpline
210
0.0
220
0.0
230
1.0
 70
    24
 71
     2
 72
     6
 73
     3
 74
     0
 42
0.000000001
 43
0.0000000001
 40
-0.8
 40
-0.8
 40
-0.8
 40
0.0
 40
0.0
 40
0.0
 10
4.0
 20
0.0
 30
-159.3871073833
 10
4.0
 20
0.4
 30
-159.3871073833
 10
4.0
 20
0.8
 30
-159.3871073833
  0
ARC
  5
319
330
30B
100
AcDbEntity
  8
Layer 01
100
AcDbCircle
 10
-5.999999999904882
 20
-159.3871073833
 30
0.0
 40
1.999999999904882
210
0.0
220
1.0
230
0.0
100
AcDbArc
 50
267.8441642173041
 51
0.0
  0
SPLINE
  5
31A
330
30B
100
AcDbEntity
  8
Layer 01
100
AcDbSpline
210
0.0
220
0.0
230
1.0
 70
    24
 71
     2
 72
     6
 73
     3
 74
     0
 42
0.000000001
 43
0.0000000001
 40
-0.8
 40
-0.8
 40
-0.8
 40
0.0
 40
0.0
 40
0.0
 10
4.0
 20
0.0
 30
-155.4504567971
 10
4.0
 20
0.4
 30
-155.4504567971
 10
4.0
 20
0.8
 30
-155.4504567971
  0
SPLINE
  5
31B
330
30B
100
AcDbEntity
  8
Layer 01
100
AcDbSpline
210
0.0
220
0.0
230
1.0
 70
    24
 71
     2
 72
     6
 73
     3
 74
     0
 42
0.000000001
 43
0.0000000001
 40
-3.936650586199988
 40
-3.936650586199988
 40
-3.936650586199988
 40
0.0
 40
0.0
 40
0.0
 10
4.0
 20
0.0
 30
-159.3871073833
 10
4.0
 20
0.0
 30
-157.4187820902
 10
4.0
 20
0.0
 30
-155.4504567971
  0
SPLINE
  5
31C
330
30B
100
AcDbEntity
  8
Layer 01
100
AcDbSpline
210
0.0
220
0.0
230
1.0
 70
    24
 71
     2
 72
     6
 73
     3
 74
     0
 42
0.000000001
 43
0.0000000001
 40
-0.8
 40
-0.8
 40
-0.8
 40
0.0
 40
0.0
 40
0.0
 10
3.5
 20
0.0
 30
-155.4504567971
 10
3.5
 20
0.4
 30
-155.4504567971
 10
3.5
 20
0.8
 30
-155.4504567971
  0
SPLINE
  5
31D
330
30B
100
AcDbEntity
  8
Layer 01
100
AcDbSpline
210
0.0
220
0.0
230
1.0
 70
    24
 71
     2
 72
     6
 73
     3
 74
     0
 42
0.000000001
 43
0.0000000001
 40
-0.5
 40
-0.5
 40
-0.5
 40
0.0
 40
0.0
 40
0.0
 10
4.0
 20
0.0
 30
-155.4504567971
 10
3.75
 20
0.0
 30
-155.4504567971
 10
3.5
 20
0.0
 30
-155.4504567971
  0
SPLINE
  5
31E
330
30B
100
AcDbEntity
  8
Layer 01
100
AcDbSpline
210
0.0
220
0.0
230
1.0
 70
    24
 71
     2
 72
     6
 73
     3
 74
     0
 42
0.000000001
 43
0.0000000001
 40
-0.7999999999761457
 40
-0.7999999999761457
 40
-0.7999999999761457
 40
0.0
 40
0.0
 40
0.0
 10
3.5
 20
-7.947334331104999
 30
-152.2477018278
 10
3.5
 20
-8.147334331105
 30
-152.5941119893
 10
3.5
 20
-8.347334331105
 30
-152.9405221508
  0
SPLINE
  5
31F
330
30B
100
AcDbEntity
  8
Layer 01
100
AcDbSpline
210
0.0
220
0.0
230
1.0
 70
    24
 71
     2
 72
     6
 73
     3
 74
     0
 42
0.000000001
 43
0.0000000001
 40
-7.791150584763811
 40
-7.791150584763811
 40
-7.791150584763811
 40
0.0
 40
0.0
 40
0.0
 10
3.5
 20
-1.200000000000002
 30
-156.1432771202
 10
3.5
 20
-4.5736671655525
 30
-154.195489474
 10
3.5
 20
-7.947334331104999
 30
-152.2477018278
  0
SPLINE
  5
320
330
30B
100
AcDbEntity
  8
Layer 01
100
AcDbSpline
210
0.0
220
0.0
230
1.0
 70
    24
 71
     2
 72
     6
 73
     3
 74
     0
 42
0.000000001
 43
0.0000000001
 40
0.0
 40
0.0
 40
0.0
 40
0.7999999999761459
 40
0.7999999999761459
 40
0.7999999999761459
 10
3.5
 20
-1.200000000000002
 30
-156.1432771202
 10
3.5
 20
-1.400000000000001
 30
-156.4896872817
 10
3.5
 20
-1.6
 30
-156.8360974432
  0
SPLINE
  5
321
330
30B
100
AcDbEntity
  8
Layer 01
100
AcDbSpline
210
0.0
220
0.0
230
1.0
 70
    24
 71
     2
 72
     6
 73
     3
 74
     0
 42
0.000000001
 43
0.0000000001
 40
-7.791150584763811
 40
-7.791150584763811
 40
-7.791150584763811
 40
0.0
 40
0.0
 40
0.0
 10
3.5
 20
-8.347334331105
 30
-152.9405221508
 10
3.5
 20
-4.9736671655525
 30
-154.888309797
 10
3.5
 20
-1.6
 30
-156.8360974432
  0
ARC
  5
322
330
30B
100
AcDbEntity
  8
Layer 01
100
AcDbCircle
 10
-1.500000000019213
 20
-69.2412574907862
 30
-136.6240446161973
 40
1.999999999996642
210
9.497402864155890E-13
220
0.5000000000000168
230
0.866025403784429
100
AcDbArc
 50
89.99999999999807
 51
180.000000000094
  0
SPLINE
  5
323
330
30B
100
AcDbEntity
  8
Layer 01
100
AcDbSpline
210
0.0
220
0.0
230
1.0
 70
    24
 71
     2
 72
     6
 73
     3
 74
     0
 42
0.000000001
 43
0.0000000001
 40
-0.799999999974146
 40
-0.799999999974146
 40
-0.799999999974146
 40
0.0
 40
0.0
 40
0.0
 10
1.5
 20
-9.679385138674
 30
-151.2477018278
 10
1.5
 20
-9.879385138672
 30
-151.5941119893
 10
1.5
 20
-10.07938513867
 30
-151.9405221508
  0
ARC
  5
324
330
30B
100
AcDbEntity
  8
Layer 01
100
AcDbCircle
 10
1.499999999999147
 20
-69.24125749079512
 30
135.8240446162257
 40
2.000000000000117
210
4.602471238048684E-14
220
-0.5000000000000024
230
-0.8660254037844374
100
AcDbArc
 50
0.0000000000056996
 51
90.0000000000011
  0
SPLINE
  5
325
330
30B
100
AcDbEntity
  8
Layer 01
100
AcDbSpline
210
0.0
220
0.0
230
1.0
 70
    24
 71
     2
 72
     6
 73
     3
 74
     0
 42
0.000000001
 43
0.0000000001
 40
-7.0
 40
-7.0
 40
-7.0
 40
0.0
 40
0.0
 40
0.0
 10
-3.5
 20
-1.6
 30
-156.8360974432
 10
0.0
 20
-1.6
 30
-156.8360974432
 10
3.5
 20
-1.6
 30
-156.8360974432
  0
SPLINE
  5
326
330
30B
100
AcDbEntity
  8
Layer 01
100
AcDbSpline
210
0.0
220
0.0
230
1.0
 70
    24
 71
     2
 72
     6
 73
     3
 74
     0
 42
0.000000001
 43
0.0000000001
 40
-7.791150584763811
 40
-7.791150584763811
 40
-7.791150584763811
 40
0.0
 40
0.0
 40
0.0
 10
-3.5
 20
-8.347334331105
 30
-152.9405221508
 10
-3.5
 20
-4.9736671655525
 30
-154.888309797
 10
-3.5
 20
-1.6
 30
-156.8360974432
  0
SPLINE
  5
327
330
30B
100
AcDbEntity
  8
Layer 01
100
AcDbSpline
210
0.0
220
0.0
230
1.0
 70
    24
 71
     2
 72
     6
 73
     3
 74
     0
 42
0.000000001
 43
0.0000000001
 40
-3.0
 40
-3.0
 40
-3.0
 40
0.0
 40
0.0
 40
0.0
 10
1.5
 20
-10.07938513867
 30
-151.9405221508
 10
0.0
 20
-10.07938513867
 30
-151.9405221508
 10
-1.5
 20
-10.07938513867
 30
-151.9405221508
  0
ARC
  5
328
330
30B
100
AcDbEntity
  8
Layer 01
100
AcDbCircle
 10
0.0
 20
-71.24125749078385
 30
-136.6240446162005
 40
1.5
210
0.0
220
0.5000000000000168
230
0.8660254037844289
100
AcDbArc
 50
180.0
 51
0.0
  0
SPLINE
  5
329
330
30B
100
AcDbEntity
  8
Layer 01
100
AcDbSpline
210
0.0
220
0.0
230
1.0
 70
    24
 71
     2
 72
     6
 73
     3
 74
     0
 42
0.000000001
 43
0.0000000001
 40
0.0
 40
0.0
 40
0.0
 40
0.7999999999761459
 40
0.7999999999761459
 40
0.7999999999761459
 10
-1.5
 20
-6.615283523536
 30
-153.9405221508
 10
-1.5
 20
-6.415283523535999
 30
-153.5941119893
 10
-1.5
 20
-6.215283523535999
 30
-153.2477018278
  0
ARC
  5
32A
330
30B
100
AcDbEntity
  8
Layer 01
100
AcDbCircle
 10
0.0000000000001038
 20
-71.2412574907976
 30
135.8240446162243
 40
1.5
210
-8.352670531853141E-15
220
-0.5000000000000168
230
-0.866025403784429
100
AcDbArc
 50
179.9999999999989
 51
359.9999999999989
  0
SPLINE
  5
32B
330
30B
100
AcDbEntity
  8
Layer 01
100
AcDbSpline
210
0.0
220
0.0
230
1.0
 70
    24
 71
     2
 72
     6
 73
     3
 74
     0
 42
0.000000001
 43
0.0000000001
 40
0.0
 40
0.0
 40
0.0
 40
0.7999999999761459
 40
0.7999999999761459
 40
0.7999999999761459
 10
1.5
 20
-6.215283523535999
 30
-153.2477018278
 10
1.5
 20
-6.415283523535999
 30
-153.5941119893
 10
1.5
 20
-6.615283523536
 30
-153.9405221508
  0
ARC
  5
32C
330
30B
100
AcDbEntity
  8
Layer 01
100
AcDbCircle
 10
0.0
 20
-71.24125749078385
 30
-136.6240446162005
 40
1.5
210
0.0
220
0.5000000000000168
230
0.8660254037844289
100
AcDbArc
 50
0.0
 51
180.0
  0
ARC
  5
32D
330
30B
100
AcDbEntity
  8
Layer 01
100
AcDbCircle
 10
-0.0000000000001038
 20
-71.2412574907976
 30
135.8240446162243
 40
1.5
210
8.352670531853141E-15
220
-0.5000000000000168
230
-0.866025403784429
100
AcDbArc
 50
0.0000000000010856
 51
180.0000000000011
  0
SPLINE
  5
32E
330
30B
100
AcDbEntity
  8
Layer 01
100
AcDbSpline
210
0.0
220
0.0
230
1.0
 70
    24
 71
     2
 72
     6
 73
     3
 74
     0
 42
0.000000001
 43
0.0000000001
 40
0.0
 40
0.0
 40
0.0
 40
3.0
 40
3.0
 40
3.0
 10
1.5
 20
-9.679385138674
 30
-151.2477018278
 10
0.0
 20
-9.679385138674
 30
-151.2477018278
 10
-1.5
 20
-9.679385138674
 30
-151.2477018278
  0
SPLINE
  5
32F
330
30B
100
AcDbEntity
  8
Layer 01
100
AcDbSpline
210
0.0
220
0.0
230
1.0
 70
    24
 71
     2
 72
     6
 73
     3
 74
     0
 42
0.000000001
 43
0.0000000001
 40
0.0
 40
0.0
 40
0.0
 40
7.791150584763811
 40
7.791150584763811
 40
7.791150584763811
 10
-3.5
 20
-7.947334331104999
 30
-152.2477018278
 10
-3.5
 20
-4.5736671655525
 30
-154.195489474
 10
-3.5
 20
-1.200000000000002
 30
-156.1432771202
  0
SPLINE
  5
330
330
30B
100
AcDbEntity
  8
Layer 01
100
AcDbSpline
210
0.0
220
0.0
230
1.0
 70
    24
 71
     2
 72
     6
 73
     3
 74
     0
 42
0.000000001
 43
0.0000000001
 40
0.0
 40
0.0
 40
0.0
 40
7.0
 40
7.0
 40
7.0
 10
-3.5
 20
-1.200000000000002
 30
-156.1432771202
 10
0.0
 20
-1.200000000000002
 30
-156.1432771202
 10
3.5
 20
-1.200000000000002
 30
-156.1432771202
  0
SPLINE
  5
331
330
30B
100
AcDbEntity
  8
Layer 01
100
AcDbSpline
210
0.0
220
0.0
230
1.0
 70
    24
 71
     2
 72
     6
 73
     3
 74
     0
 42
0.000000001
 43
0.0000000001
 40
-0.799999999974146
 40
-0.799999999974146
 40
-0.799999999974146
 40
0.0
 40
0.0
 40
0.0
 10
-1.5
 20
-9.679385138674
 30
-151.2477018278
 10
-1.5
 20
-9.879385138672
 30
-151.5941119893
 10
-1.5
 20
-10.07938513867
 30
-151.9405221508
  0
ARC
  5
332
330
30B
100
AcDbEntity
  8
Layer 01
100
AcDbCircle
 10
-1.500000000019238
 20
-69.24125749078598
 30
136.6240446161974
 40
1.999999999996645
210
9.514056209525279E-13
220
-0.5000000000000153
230
-0.8660254037844298
100
AcDbArc
 50
89.9999999999983
 51
180.0000000000944
  0
SPLINE
  5
333
330
30B
100
AcDbEntity
  8
Layer 01
100
AcDbSpline
210
0.0
220
0.0
230
1.0
 70
    24
 71
     2
 72
     6
 73
     3
 74
     0
 42
0.000000001
 43
0.0000000001
 40
-0.7999999999761457
 40
-0.7999999999761457
 40
-0.7999999999761457
 40
0.0
 40
0.0
 40
0.0
 10
-3.5
 20
-7.947334331104999
 30
-152.2477018278
 10
-3.5
 20
-8.147334331105
 30
-152.5941119893
 10
-3.5
 20
-8.347334331105
 30
-152.9405221508
  0
ARC
  5
334
330
30B
100
AcDbEntity
  8
Layer 01
100
AcDbCircle
 10
-1.499999999999264
 20
-69.24125749079741
 30
135.8240446162246
 40
2.000000000000136
210
-3.774758283725554E-14
220
-0.5000000000000168
230
-0.866025403784429
100
AcDbArc
 50
90.00000000000016
 51
179.9999999999959
  0
SPLINE
  5
335
330
30B
100
AcDbEntity
  8
Layer 01
100
AcDbSpline
210
0.0
220
0.0
230
1.0
 70
    24
 71
     2
 72
     6
 73
     3
 74
     0
 42
0.000000001
 43
0.0000000001
 40
-0.7999999999761459
 40
-0.7999999999761459
 40
-0.7999999999761459
 40
0.0
 40
0.0
 40
0.0
 10
-3.5
 20
-1.200000000000002
 30
-156.1432771202
 10
-3.5
 20
-1.400000000000001
 30
-156.4896872817
 10
-3.5
 20
-1.6
 30
-156.8360974432
  0
SPLINE
  5
336
330
30B
100
AcDbEntity
  8
Layer 01
100
AcDbSpline
210
0.0
220
0.0
230
1.0
 70
    24
 71
     2
 72
     6
 73
     3
 74
     0
 42
0.000000001
 43
0.0000000001
 40
-0.8
 40
-0.8
 40
-0.8
 40
0.0
 40
0.0
 40
0.0
 10
-3.5
 20
0.0
 30
-155.4504567971
 10
-3.5
 20
0.4
 30
-155.4504567971
 10
-3.5
 20
0.8
 30
-155.4504567971
  0
ARC
  5
337
330
30B
100
AcDbEntity
  8
Layer 01
100
AcDbCircle
 10
-0.8000000000259213
 20
-155.4504567971
 30
3.5
 40
1.600000000025921
210
1.0
220
0.0
230
0.0
100
AcDbArc
 50
240.0000000016078
 51
0.0
  0
ARC
  5
338
330
30B
100
AcDbEntity
  8
Layer 01
100
AcDbCircle
 10
0.8000000000259215
 20
-155.4504567971
 30
3.5
 40
1.600000000025922
210
-1.0
220
0.0
230
0.0
100
AcDbArc
 50
180.0
 51
299.9999999983922
  0
SPLINE
  5
339
330
30B
100
AcDbEntity
  8
Layer 01
100
AcDbSpline
210
0.0
220
0.0
230
1.0
 70
    24
 71
     2
 72
     6
 73
     3
 74
     0
 42
0.000000001
 43
0.0000000001
 40
-0.8
 40
-0.8
 40
-0.8
 40
0.0
 40
0.0
 40
0.0
 10
-4.0
 20
0.0
 30
-155.4504567971
 10
-4.0
 20
0.4
 30
-155.4504567971
 10
-4.0
 20
0.8
 30
-155.4504567971
  0
SPLINE
  5
33A
330
30B
100
AcDbEntity
  8
Layer 01
100
AcDbSpline
210
0.0
220
0.0
230
1.0
 70
    24
 71
     2
 72
     6
 73
     3
 74
     0
 42
0.000000001
 43
0.0000000001
 40
-0.5
 40
-0.5
 40
-0.5
 40
0.0
 40
0.0
 40
0.0
 10
-3.5
 20
0.0
 30
-155.4504567971
 10
-3.75
 20
0.0
 30
-155.4504567971
 10
-4.0
 20
0.0
 30
-155.4504567971
  0
SPLINE
  5
33B
330
30B
100
AcDbEntity
  8
Layer 01
100
AcDbSpline
210
0.0
220
0.0
230
1.0
 70
    24
 71
     2
 72
     6
 73
     3
 74
     0
 42
0.000000001
 43
0.0000000001
 40
-3.936650586199988
 40
-3.936650586199988
 40
-3.936650586199988
 40
0.0
 40
0.0
 40
0.0
 10
-4.0
 20
0.0
 30
-155.4504567971
 10
-4.0
 20
0.0
 30
-157.4187820902
 10
-4.0
 20
0.0
 30
-159.3871073833
  0
ARC
  5
33C
330
30B
100
AcDbEntity
  8
Layer 01
100
AcDbCircle
 10
-0.0000000000000298
 20
-0.0000000351778908
 30
0.0
 40
161.4999999647972
210
0.0
220
1.0
230
0.0
100
AcDbArc
 50
272.1558357803322
 51
267.8441642196679
  0
SPLINE
  5
33D
330
30B
100
AcDbEntity
  8
Layer 01
100
AcDbSpline
210
0.0
220
0.0
230
1.0
 70
    24
 71
     2
 72
     6
 73
     3
 74
     0
 42
0.000000001
 43
0.0000000001
 40
0.0
 40
0.0
 40
0.0
 40
7.0
 40
7.0
 40
7.0
 10
3.5
 20
0.0
 30
-155.4504567971
 10
0.0
 20
0.0
 30
-155.4504567971
 10
-3.5
 20
0.0
 30
-155.4504567971
  0
ARC
  5
33E
330
30B
100
AcDbEntity
  8
Layer 01
100
AcDbCircle
 10
-0.8000000000418361
 20
-155.4504567971
 30
-3.5
 40
0.8000000000418361
210
1.0
220
0.0
230
0.0
100
AcDbArc
 50
240.0000000051885
 51
0.0
  0
ARC
  5
33F
330
30B
100
AcDbEntity
  8
Layer 01
100
AcDbCircle
 10
0.8000000000418351
 20
-155.4504567971
 30
-3.5
 40
0.8000000000418351
210
-1.0
220
0.0
230
0.0
100
AcDbArc
 50
180.0
 51
299.9999999948115
  0
ARC
  5
340
330
30B
100
AcDbEntity
  8
Layer 01
100
AcDbCircle
 10
19.19442158631
 20
-156.3260188835
 30
-0.8
 40
1.75
210
0.0
220
-1.0
230
0.0
100
AcDbArc
 50
180.0
 51
0.0
  0
SPLINE
  5
341
330
30B
100
AcDbEntity
  8
Layer 01
100
AcDbSpline
210
0.0
220
0.0
230
1.0
 70
    24
 71
     2
 72
     6
 73
     3
 74
     0
 42
0.000000001
 43
0.0000000001
 40
0.0
 40
0.0
 40
0.0
 40
0.8
 40
0.8
 40
0.8
 10
20.94442158631
 20
0.8
 30
-156.3260188835
 10
20.94442158631
 20
0.4
 30
-156.3260188835
 10
20.94442158631
 20
0.0
 30
-156.3260188835
  0
ARC
  5
342
330
30B
100
AcDbEntity
  8
Layer 01
100
AcDbCircle
 10
19.19442158631
 20
-156.3260188835
 30
0.0
 40
1.75
210
0.0
220
-1.0
230
0.0
100
AcDbArc
 50
180.0
 51
0.0
  0
SPLINE
  5
343
330
30B
100
AcDbEntity
  8
Layer 01
100
AcDbSpline
210
0.0
220
0.0
230
1.0
 70
    24
 71
     2
 72
     6
 73
     3
 74
     0
 42
0.000000001
 43
0.0000000001
 40
0.0
 40
0.0
 40
0.0
 40
0.8
 40
0.8
 40
0.8
 10
17.44442158631
 20
0.0
 30
-156.3260188835
 10
17.44442158631
 20
0.4
 30
-156.3260188835
 10
17.44442158631
 20
0.8
 30
-156.3260188835
  0
ARC
  5
344
330
30B
100
AcDbEntity
  8
Layer 01
100
AcDbCircle
 10
19.19442158631
 20
-156.3260188835
 30
-0.8
 40
1.75
210
0.0
220
-1.0
230
0.0
100
AcDbArc
 50
0.0
 51
180.0
  0
ARC
  5
345
330
30B
100
AcDbEntity
  8
Layer 01
100
AcDbCircle
 10
19.19442158631
 20
-156.3260188835
 30
0.0
 40
1.75
210
0.0
220
-1.0
230
0.0
100
AcDbArc
 50
0.0
 51
180.0
  0
LINE
  5
346
330
30B
100
AcDbEntity
  8
Layer 01
100
AcDbLine
 10
-161.4999947207187
 20
0.8
 30
0.0411561632609647
 11
161.4999947207186
 21
0.8
 31
0.0411561632609647
  0
LINE
  5
347
330
30B
100
AcDbEntity
  8
Layer 01
100
AcDbLine
 10
0.0000000000000426
 20
0.8
 30
161.4999999295902
 11
0.0000000000000426
 21
0.8
 31
-155.4504567971
  0
ARC
  5
348
330
30B
100
AcDbEntity
  8
Layer 01
100
AcDbCircle
 10
6.0
 20
-159.3871073833
 30
0.4000000000000004
 40
2.0
210
0.0
220
1.0
230
0.0
100
AcDbArc
 50
180.0
 51
272.1558357799721
  0
LINE
  5
349
330
30B
100
AcDbEntity
  8
Layer 01
100
AcDbLine
 10
-6.0
 20
0.0000000000000001
 30
-161.3871073833
 11
-6.0
 21
0.8000000000000002
 31
-161.3871073833
  0
ARC
  5
34A
330
30B
100
AcDbEntity
  8
Layer 01
100
AcDbCircle
 10
0.0
 20
0.0
 30
0.4
 40
161.5
210
0.0
220
1.0
230
0.0
100
AcDbArc
 50
272.1558357798626
 51
267.8441642201374
  0
LINE
  5
34B
330
30B
100
AcDbEntity
  8
Layer 01
100
AcDbLine
 10
-161.450456797124
 20
0.0000000000000001
 30
4.000000000000962
 11
-161.450456797124
 21
0.8
 31
4.000000000000962
  0
LINE
  5
34C
330
30B
100
AcDbEntity
  8
Layer 01
100
AcDbLine
 10
4.000000000000962
 20
0.0000000000000001
 30
161.450456797124
 11
4.000000000000962
 21
0.8
 31
161.450456797124
  0
LINE
  5
34D
330
30B
100
AcDbEntity
  8
Layer 01
100
AcDbLine
 10
161.450456797124
 20
0.0000000000000001
 30
-4.000000000000962
 11
161.450456797124
 21
0.8
 31
-4.000000000000962
  0
ARC
  5
34E
330
30B
100
AcDbEntity
  8
Layer 01
100
AcDbCircle
 10
-6.0
 20
-159.3871073833
 30
0.4000000000000004
 40
2.000000000000008
210
0.0
220
1.0
230
0.0
100
AcDbArc
 50
267.8441642201383
 51
0.0
  0
LINE
  5
34F
330
30B
100
AcDbEntity
  8
Layer 01
100
AcDbLine
 10
4.001415581401233
 20
0.0000000000000001
 30
-159.4623424930178
 11
4.001415581401233
 21
0.8000000000000002
 31
-159.4623424930178
  0
LINE
  5
350
330
30B
100
AcDbEntity
  8
Layer 01
100
AcDbLine
 10
4.0
 20
0.4
 30
-159.3871073833
 11
4.0
 21
0.4
 31
-155.4504567971
  0
LINE
  5
351
330
30B
100
AcDbEntity
  8
Layer 01
100
AcDbLine
 10
4.0
 20
0.0
 30
-157.4187820902
 11
4.0
 21
0.7999999999999999
 31
-157.4187820902
  0
LINE
  5
352
330
30B
100
AcDbEntity
  8
Layer 01
100
AcDbLine
 10
4.0
 20
0.4
 30
-155.4504567971
 11
3.5
 21
0.4
 31
-155.4504567971
  0
LINE
  5
353
330
30B
100
AcDbEntity
  8
Layer 01
100
AcDbLine
 10
3.75
 20
0.0
 30
-155.4504567971
 11
3.75
 21
0.7999999999999999
 31
-155.4504567971
  0
LINE
  5
354
330
30B
100
AcDbEntity
  8
Layer 01
100
AcDbLine
 10
3.5
 20
-0.3999999999999999
 30
-156.1432771201517
 11
3.5
 21
-0.3999999999999999
 31
-156.999650135603
  0
LINE
  5
355
330
30B
100
AcDbEntity
  8
Layer 01
100
AcDbLine
 10
3.5
 20
-1.33333333330329
 30
-156.3742172278146
 11
3.5
 21
0.5063945294822495
 31
-156.3742172278146
  0
LINE
  5
356
330
30B
100
AcDbEntity
  8
Layer 01
100
AcDbLine
 10
3.5
 20
-1.399999999994816
 30
-156.489687281691
 11
3.5
 21
-8.147334331110184
 31
-152.594111989309
  0
LINE
  5
357
330
30B
100
AcDbEntity
  8
Layer 01
100
AcDbLine
 10
3.5
 20
-4.573667165558457
 30
-154.1954894739965
 11
3.5
 21
-4.973667165546543
 31
-154.8883097970034
  0
ARC
  5
358
330
30B
100
AcDbEntity
  8
Layer 01
100
AcDbCircle
 10
1.5
 20
-69.24125749079163
 30
136.2240446162124
 40
2.0
210
0.0
220
-0.5000000000000189
230
-0.8660254037844277
100
AcDbArc
 50
0.0
 51
89.99999999999987
  0
LINE
  5
359
330
30B
100
AcDbEntity
  8
Layer 01
100
AcDbLine
 10
1.500000000000006
 20
-9.679385138679281
 30
-151.2477018277969
 11
1.500000000000008
 21
-10.07938513866639
 31
-151.9405221508021
  0
LINE
  5
35A
330
30B
100
AcDbEntity
  8
Layer 01
100
AcDbLine
 10
-3.5
 20
-5.839692569357652
 30
-154.3883097970358
 11
-1.203305819679805
 21
-5.839692569357652
 31
-154.3883097970358
  0
LINE
  5
35B
330
30B
100
AcDbEntity
  8
Layer 01
100
AcDbLine
 10
1.203305819679805
 20
-5.839692569357652
 30
-154.3883097970358
 11
3.5
 21
-5.839692569357652
 31
-154.3883097970358
  0
LINE
  5
35C
330
30B
100
AcDbEntity
  8
Layer 01
100
AcDbLine
 10
0.0000000000000009
 20
-1.600000000015486
 30
-156.8360974432269
 11
0.0000000000000009
 21
-5.316245417885306
 31
-154.6905221508449
  0
LINE
  5
35D
330
30B
100
AcDbEntity
  8
Layer 01
100
AcDbLine
 10
0.0000000000000009
 20
-7.914321629238595
 30
-153.1905221508449
 11
0.0000000000000009
 21
-10.07938513869684
 31
-151.9405221508465
  0
ARC
  5
35E
330
30B
100
AcDbEntity
  8
Layer 01
100
AcDbCircle
 10
0.0
 20
-71.24125749079107
 30
-136.2240446162123
 40
1.500000000000006
210
0.0
220
0.5000000000000189
230
0.8660254037844277
100
AcDbArc
 50
179.9999999999995
 51
0.0
  0
LINE
  5
35F
330
30B
100
AcDbEntity
  8
Layer 01
100
AcDbLine
 10
0.0000000000000057
 20
-5.316245417853395
 30
-154.6905221508035
 11
0.0000000000000085
 21
-4.916245417865312
 31
-153.9977018277966
  0
ARC
  5
360
330
30B
100
AcDbEntity
  8
Layer 01
100
AcDbCircle
 10
0.0000000000000142
 20
-71.24125749079106
 30
-136.2240446162122
 40
1.500000000000007
210
0.0
220
0.5000000000000189
230
0.8660254037844277
100
AcDbArc
 50
0.0000000000005428
 51
179.9999999999989
  0
LINE
  5
361
330
30B
100
AcDbEntity
  8
Layer 01
100
AcDbLine
 10
-1.500000000000014
 20
-6.414799285484577
 30
-153.593273264392
 11
-1.500000000000014
 21
-6.215283523541943
 31
-153.2477018277966
  0
LINE
  5
362
330
30B
100
AcDbEntity
  8
Layer 01
100
AcDbLine
 10
-0.0000000000000085
 20
-7.914321629206654
 30
-153.1905221508034
 11
-0.0000000000000057
 21
-7.514321629218562
 31
-152.4977018277965
  0
LINE
  5
363
330
30B
100
AcDbEntity
  8
Layer 01
100
AcDbLine
 10
1.499999999999986
 20
-6.414392568664804
 30
-153.5925688101959
 11
1.499999999999986
 21
-6.215283523541931
 31
-153.2477018277966
  0
LINE
  5
364
330
30B
100
AcDbEntity
  8
Layer 01
100
AcDbLine
 10
-3.5
 20
-5.43969256931436
 30
-153.6954894739608
 11
-1.203305819679827
 21
-5.43969256931436
 31
-153.6954894739608
  0
LINE
  5
365
330
30B
100
AcDbEntity
  8
Layer 01
100
AcDbLine
 10
1.203305819679847
 20
-5.43969256931436
 30
-153.6954894739608
 11
3.5
 21
-5.43969256931436
 31
-153.6954894739608
  0
LINE
  5
366
330
30B
100
AcDbEntity
  8
Layer 01
100
AcDbLine
 10
0.0
 20
-1.199999999972213
 30
-156.1432771201519
 11
0.0
 21
-4.916245417841981
 31
-153.99770182777
  0
LINE
  5
367
330
30B
100
AcDbEntity
  8
Layer 01
100
AcDbLine
 10
0.0
 20
-7.514321629195289
 30
-152.4977018277699
 11
0.0
 21
-9.679385138656531
 31
-151.2477018277698
  0
LINE
  5
368
330
30B
100
AcDbEntity
  8
Layer 01
100
AcDbLine
 10
1.5
 20
-9.879385138673506
 30
-151.5941119892991
 11
-1.5
 21
-9.879385138673506
 31
-151.5941119892991
  0
LINE
  5
369
330
30B
100
AcDbEntity
  8
Layer 01
100
AcDbLine
 10
0.0
 20
-9.679385138679963
 30
-151.2477018277966
 11
0.0
 21
-10.07938513866705
 31
-151.9405221508017
  0
ARC
  5
36A
330
30B
100
AcDbEntity
  8
Layer 01
100
AcDbCircle
 10
-1.5
 20
-69.24125749079165
 30
136.2240446162124
 40
1.99999999999998
210
0.0
220
-0.5000000000000189
230
-0.8660254037844277
100
AcDbArc
 50
90.0
 51
180.0
  0
LINE
  5
36B
330
30B
100
AcDbEntity
  8
Layer 01
100
AcDbLine
 10
-3.5
 20
-8.147334331110184
 30
-152.594111989309
 11
-3.5
 21
-1.399999999994816
 31
-156.489687281691
  0
LINE
  5
36C
330
30B
100
AcDbEntity
  8
Layer 01
100
AcDbLine
 10
-3.5
 20
-4.573667165558457
 30
-154.1954894739965
 11
-3.5
 21
-4.973667165546543
 31
-154.8883097970034
  0
LINE
  5
36D
330
30B
100
AcDbEntity
  8
Layer 01
100
AcDbLine
 10
-3.5
 20
-0.3999999999999999
 30
-156.999650135603
 11
-3.5
 21
-0.3999999999999999
 31
-156.1432771201517
  0
LINE
  5
36E
330
30B
100
AcDbEntity
  8
Layer 01
100
AcDbLine
 10
-3.5
 20
-1.33333333330329
 30
-156.3742172278146
 11
-3.5
 21
0.5063945294822498
 31
-156.3742172278146
  0
ARC
  5
36F
330
30B
100
AcDbEntity
  8
Layer 01
100
AcDbCircle
 10
0.8
 20
-155.4504567971
 30
0.0
 40
1.6
210
-1.0
220
0.0
230
0.0
100
AcDbArc
 50
180.0
 51
299.9999999991962
  0
LINE
  5
370
330
30B
100
AcDbEntity
  8
Layer 01
100
AcDbLine
 10
3.5
 20
-0.8000000000000114
 30
-157.0504567971
 11
-3.5
 21
-0.8000000000000114
 31
-157.0504567971
  0
LINE
  5
371
330
30B
100
AcDbEntity
  8
Layer 01
100
AcDbLine
 10
-3.5
 20
0.4
 30
-155.4504567971
 11
-4.0
 21
0.4
 31
-155.4504567971
  0
LINE
  5
372
330
30B
100
AcDbEntity
  8
Layer 01
100
AcDbLine
 10
-3.75
 20
0.0
 30
-155.4504567971
 11
-3.75
 21
0.7999999999999999
 31
-155.4504567971
  0
LINE
  5
373
330
30B
100
AcDbEntity
  8
Layer 01
100
AcDbLine
 10
-4.0
 20
0.4
 30
-155.4504567971
 11
-4.0
 21
0.4
 31
-159.3871073833
  0
LINE
  5
374
330
30B
100
AcDbEntity
  8
Layer 01
100
AcDbLine
 10
-4.0
 20
0.0
 30
-157.4187820902
 11
-4.0
 21
0.7999999999999999
 31
-157.4187820902
  0
LINE
  5
375
330
30B
100
AcDbEntity
  8
Layer 01
100
AcDbLine
 10
-161.4999947207187
 20
0.0
 30
0.0411561632609647
 11
161.4999947207186
 21
0.0
 31
0.0411561632609647
  0
LINE
  5
376
330
30B
100
AcDbEntity
  8
Layer 01
100
AcDbLine
 10
0.0000000000000142
 20
0.0
 30
161.4999999295903
 11
0.0000000000000142
 21
0.0
 31
-155.4504567971
  0
ARC
  5
377
330
30B
100
AcDbEntity
  8
Layer 01
100
AcDbCircle
 10
0.8
 20
-155.4504567971
 30
0.0
 40
0.8
210
-1.0
220
0.0
230
0.0
100
AcDbArc
 50
180.0
 51
299.9999999974063
  0
LINE
  5
378
330
30B
100
AcDbEntity
  8
Layer 01
100
AcDbLine
 10
3.5
 20
-0.8000000000000114
 30
-156.2504567971
 11
-3.5
 21
-0.8000000000000114
 31
-156.2504567971
  0
ARC
  5
379
330
30B
100
AcDbEntity
  8
Layer 01
100
AcDbCircle
 10
19.19442158631
 20
-156.3260188835
 30
-0.3999999999999999
 40
1.75
210
0.0
220
-1.0
230
0.0
100
AcDbArc
 50
180.0
 51
0.0
  0
LINE
  5
37A
330
30B
100
AcDbEntity
  8
Layer 01
100
AcDbLine
 10
19.19442158631
 20
0.7999999999999999
 30
-158.0760188835
 11
19.19442158631
 21
-0.0000000000000002
 31
-158.0760188835
  0
ARC
  5
37B
330
30B
100
AcDbEntity
  8
Layer 01
100
AcDbCircle
 10
19.19442158631
 20
-156.3260188835
 30
-0.3999999999999999
 40
1.75
210
0.0
220
-1.0
230
0.0
100
AcDbArc
 50
0.0
 51
180.0
  0
LINE
  5
37C
330
30B
100
AcDbEntity
  8
Layer 01
100
AcDbLine
 10
19.19442158631
 20
0.7999999999999999
 30
-154.5760188835
 11
19.19442158631
 21
-0.0000000000000002
 31
-154.5760188835
  0
ENDBLK
  5
37E
330
30B
100
AcDbEntity
  8
0
100
AcDbBlockEnd
  0
ENDSEC
  0
SECTION
  2
ENTITIES
  0
INSERT
  5
382
330
1F
100
AcDbEntity
  8
Layer 01
100
AcDbBlockReference
  2
D81C_2000_ASM
 10
0.0
 20
0.0
 30
0.0
  0
ENDSEC
  0
SECTION
  2
OBJECTS
  0
DICTIONARY
  5
C
330
0
100
AcDbDictionary
281
     1
  3
ACAD_DETAILVIEWSTYLE
350
3BE
  3
ACAD_GROUP
350
D
  3
ACAD_LAYOUT
350
1A
  3
ACAD_MATERIAL
350
43
  3
ACAD_MLEADERSTYLE
350
6B
  3
ACAD_MLINESTYLE
350
17
  3
ACAD_PLOTSETTINGS
350
19
  3
ACAD_PLOTSTYLENAME
350
E
  3
ACAD_SCALELIST
350
47
  3
ACAD_SECTIONVIEWSTYLE
350
3BF
  3
ACAD_TABLESTYLE
350
69
  3
ACAD_VISUALSTYLE
350
2A
  3
ACDB_RECOMPOSE_DATA
350
3BB
  3
AcDbVariableDictionary
350
383
  0
SUN
  5
6D
330
29
100
AcDbSun
 90
        1
290
     0
 63
     7
421
 16777215
 40
1.0
291
     1
 91
  2455826
 92
 54000000
292
     0
 70
     2
 71
   256
280
     1
  0
DICTIONARY
  5
3BE
102
{ACAD_REACTORS
330
C
102
}
330
C
100
AcDbDictionary
281
     1
  0
DICTIONARY
  5
D
102
{ACAD_REACTORS
330
C
102
}
330
C
100
AcDbDictionary
281
     1
  0
DICTIONARY
  5
1A
102
{ACAD_REACTORS
330
C
102
}
330
C
100
AcDbDictionary
281
     1
  3
Layout1
350
1E
  3
Layout2
350
26
  3
Model
350
22
  0
DICTIONARY
  5
43
102
{ACAD_REACTORS
330
C
102
}
330
C
100
AcDbDictionary
281
     1
  3
ByBlock
350
45
  3
ByLayer
350
44
  3
Global
350
46
  0
DICTIONARY
  5
6B
102
{ACAD_REACTORS
330
C
102
}
330
C
100
AcDbDictionary
281
     1
  3
Standard
350
6C
  0
DICTIONARY
  5
17
102
{ACAD_REACTORS
330
C
102
}
330
C
100
AcDbDictionary
281
     1
  3
Standard
350
18
  0
DICTIONARY
  5
19
102
{ACAD_REACTORS
330
C
102
}
330
C
100
AcDbDictionary
281
     1
  0
ACDBDICTIONARYWDFLT
  5
E
102
{ACAD_REACTORS
330
C
102
}
330
C
100
AcDbDictionary
281
     1
  3
Normal
350
F
100
AcDbDictionaryWithDefault
340
F
  0
DICTIONARY
  5
47
102
{ACAD_REACTORS
330
C
102
}
330
C
100
AcDbDictionary
281
     1
  3
A0
350
48
  3
A1
350
49
  3
A2
350
4A
  3
A3
350
4B
  3
A4
350
4C
  3
A5
350
4D
  3
A6
350
4E
  3
A7
350
4F
  3
A8
350
50
  3
A9
350
51
  3
B0
350
52
  3
B1
350
53
  3
B2
350
54
  3
B3
350
55
  3
B4
350
56
  3
B5
350
57
  3
B6
350
58
  3
B7
350
59
  3
B8
350
5A
  3
B9
350
5B
  3
C0
350
5C
  3
C1
350
5D
  3
C2
350
5E
  3
C3
350
5F
  3
C4
350
60
  3
C5
350
61
  3
C6
350
62
  3
C7
350
63
  3
C8
350
64
  3
C9
350
65
  3
D0
350
66
  3
D1
350
67
  3
D2
350
68
  0
DICTIONARY
  5
3BF
102
{ACAD_REACTORS
330
C
102
}
330
C
100
AcDbDictionary
281
     1
  0
DICTIONARY
  5
69
102
{ACAD_REACTORS
330
C
102
}
330
C
100
AcDbDictionary
281
     1
  3
Standard
350
6A
  0
DICTIONARY
  5
2A
102
{ACAD_REACTORS
330
C
102
}
330
C
100
AcDbDictionary
281
     1
  3
2dWireframe
350
2F
  3
Basic
350
32
  3
Brighten
350
36
  3
ColorChange
350
3A
  3
Conceptual
350
34
  3
Dim
350
35
  3
EdgeColorOff
350
3D
  3
Facepattern
350
39
  3
Flat
350
2B
  3
FlatWithEdges
350
2C
  3
Gouraud
350
2D
  3
GouraudWithEdges
350
2E
  3
Hidden
350
31
  3
JitterOff
350
3B
  3
Linepattern
350
38
  3
OverhangOff
350
3C
  3
Realistic
350
33
  3
Shaded
350
42
  3
Shaded with edges
350
41
  3
Shades of Gray
350
3E
  3
Sketchy
350
3F
  3
Thicken
350
37
  3
Wireframe
350
30
  3
X-Ray
350
40
  0
XRECORD
  5
3BB
102
{ACAD_REACTORS
330
C
102
}
330
C
100
AcDbXrecord
280
     1
 90
        1
330
6A
  0
DICTIONARY
  5
383
102
{ACAD_REACTORS
330
C
102
}
330
C
100
AcDbDictionary
281
     1
  3
CANNOSCALE
350
384
  3
CMLEADERSTYLE
350
3BD
  3
CTABLESTYLE
350
3BC
  3
XCLIPFRAME
350
385
  0
LAYOUT
  5
1E
102
{ACAD_REACTORS
330
1A
102
}
330
1A
100
AcDbPlotSettings
  1

  2
none_device
  4

  6

 40
0.0
 41
0.0
 42
0.0
 43
0.0
 44
0.0
 45
0.0
 46
0.0
 47
0.0
 48
0.0
 49
0.0
140
0.0
141
0.0
142
1.0
143
1.0
 70
   688
 72
     0
 73
     0
 74
     5
  7

 75
    16
 76
     0
 77
     2
 78
   300
147
1.0
148
0.0
149
0.0
100
AcDbLayout
  1
Layout1
 70
     1
 71
     1
 10
0.0
 20
0.0
 11
12.0
 21
9.0
 12
0.0
 22
0.0
 32
0.0
 14
1.000000000000000E+20
 24
1.000000000000000E+20
 34
1.000000000000000E+20
 15
-1.000000000000000E+20
 25
-1.000000000000000E+20
 35
-1.000000000000000E+20
146
0.0
 13
0.0
 23
0.0
 33
0.0
 16
1.0
 26
0.0
 36
0.0
 17
0.0
 27
1.0
 37
0.0
 76
     0
330
1B
  0
LAYOUT
  5
26
102
{ACAD_REACTORS
330
1A
102
}
330
1A
100
AcDbPlotSettings
  1

  2
none_device
  4

  6

 40
0.0
 41
0.0
 42
0.0
 43
0.0
 44
0.0
 45
0.0
 46
0.0
 47
0.0
 48
0.0
 49
0.0
140
0.0
141
0.0
142
1.0
143
1.0
 70
   688
 72
     0
 73
     0
 74
     5
  7

 75
    16
 76
     0
 77
     2
 78
   300
147
1.0
148
0.0
149
0.0
100
AcDbLayout
  1
Layout2
 70
     1
 71
     2
 10
0.0
 20
0.0
 11
0.0
 21
0.0
 12
0.0
 22
0.0
 32
0.0
 14
0.0
 24
0.0
 34
0.0
 15
0.0
 25
0.0
 35
0.0
146
0.0
 13
0.0
 23
0.0
 33
0.0
 16
1.0
 26
0.0
 36
0.0
 17
0.0
 27
1.0
 37
0.0
 76
     0
330
23
  0
LAYOUT
  5
22
102
{ACAD_REACTORS
330
1A
102
}
330
1A
100
AcDbPlotSettings
  1

  2
none_device
  4
Letter_(8.50_x_11.00_Inches)
  6

 40
6.35
 41
6.35
 42
6.35000508
 43
6.35000508
 44
215.9
 45
279.4
 46
0.0
 47
0.0
 48
0.0
 49
0.0
140
0.0
141
0.0
142
1.0
143
1.0
 70
  1712
 72
     0
 73
     0
 74
     0
  7

 75
     0
 76
     0
 77
     2
 78
   300
147
1.0
148
0.0
149
0.0
100
AcDbLayout
  1
Model
 70
     1
 71
     0
 10
0.0
 20
0.0
 11
12.0
 21
9.0
 12
0.0
 22
0.0
 32
0.0
 14
1.000000000000000E+20
 24
1.000000000000000E+20
 34
1.000000000000000E+20
 15
-1.000000000000000E+20
 25
-1.000000000000000E+20
 35
-1.000000000000000E+20
146
0.0
 13
0.0
 23
0.0
 33
0.0
 16
1.0
 26
0.0
 36
0.0
 17
0.0
 27
1.0
 37
0.0
 76
     0
330
1F
331
29
  0
MATERIAL
  5
45
102
{ACAD_REACTORS
330
43
102
}
330
43
100
AcDbMaterial
  1
ByBlock
 72
     1
 94
      127
  0
MATERIAL
  5
44
102
{ACAD_REACTORS
330
43
102
}
330
43
100
AcDbMaterial
  1
ByLayer
 72
     1
 94
      127
  0
MATERIAL
  5
46
102
{ACAD_REACTORS
330
43
102
}
330
43
100
AcDbMaterial
  1
Global
 72
     1
 94
      127
  0
MLEADERSTYLE
  5
6C
102
{ACAD_REACTORS
330
6B
102
}
102
{ACAD_XDICTIONARY
360
3B9
102
}
330
6B
100
AcDbMLeaderStyle
170
     2
171
     1
172
     0
 90
        2
 40
0.0
 41
0.0
173
     1
 91
-1056964608
340
14
 92
       -2
290
     1
 42
0.09
291
     1
 43
0.36
  3
Standard
341
0
 44
0.18
300

342
11
174
     1
178
     6
175
     1
176
     0
 93
-1056964608
 45
0.18
292
     0
297
     0
 46
0.18
343
0
 94
-1056964608
 47
1.0
 49
1.0
140
1.0
293
     1
141
0.0
294
     1
177
     0
142
1.0
295
     0
296
     0
143
0.125
1001
ACAD_MLEADERVER
1070
     2
  0
MLINESTYLE
  5
18
102
{ACAD_REACTORS
330
17
102
}
330
17
100
AcDbMlineStyle
  2
Standard
 70
     0
  3

 62
   256
 51
90.0
 52
90.0
 71
     2
 49
0.5
 62
   256
  6
BYLAYER
 49
-0.5
 62
   256
  6
BYLAYER
  0
ACDBPLACEHOLDER
  5
F
102
{ACAD_REACTORS
330
E
102
}
330
E
  0
SCALE
  5
48
102
{ACAD_REACTORS
330
47
102
}
330
47
100
AcDbScale
 70
     0
300
1:1
140
1.0
141
1.0
290
     1
  0
SCALE
  5
49
102
{ACAD_REACTORS
330
47
102
}
330
47
100
AcDbScale
 70
     0
300
1:2
140
1.0
141
2.0
290
     0
  0
SCALE
  5
4A
102
{ACAD_REACTORS
330
47
102
}
330
47
100
AcDbScale
 70
     0
300
1:4
140
1.0
141
4.0
290
     0
  0
SCALE
  5
4B
102
{ACAD_REACTORS
330
47
102
}
330
47
100
AcDbScale
 70
     0
300
1:5
140
1.0
141
5.0
290
     0
  0
SCALE
  5
4C
102
{ACAD_REACTORS
330
47
102
}
330
47
100
AcDbScale
 70
     0
300
1:8
140
1.0
141
8.0
290
     0
  0
SCALE
  5
4D
102
{ACAD_REACTORS
330
47
102
}
330
47
100
AcDbScale
 70
     0
300
1:10
140
1.0
141
10.0
290
     0
  0
SCALE
  5
4E
102
{ACAD_REACTORS
330
47
102
}
330
47
100
AcDbScale
 70
     0
300
1:16
140
1.0
141
16.0
290
     0
  0
SCALE
  5
4F
102
{ACAD_REACTORS
330
47
102
}
330
47
100
AcDbScale
 70
     0
300
1:20
140
1.0
141
20.0
290
     0
  0
SCALE
  5
50
102
{ACAD_REACTORS
330
47
102
}
330
47
100
AcDbScale
 70
     0
300
1:30
140
1.0
141
30.0
290
     0
  0
SCALE
  5
51
102
{ACAD_REACTORS
330
47
102
}
330
47
100
AcDbScale
 70
     0
300
1:40
140
1.0
141
40.0
290
     0
  0
SCALE
  5
52
102
{ACAD_REACTORS
330
47
102
}
330
47
100
AcDbScale
 70
     0
300
1:50
140
1.0
141
50.0
290
     0
  0
SCALE
  5
53
102
{ACAD_REACTORS
330
47
102
}
330
47
100
AcDbScale
 70
     0
300
1:100
140
1.0
141
100.0
290
     0
  0
SCALE
  5
54
102
{ACAD_REACTORS
330
47
102
}
330
47
100
AcDbScale
 70
     0
300
2:1
140
2.0
141
1.0
290
     0
  0
SCALE
  5
55
102
{ACAD_REACTORS
330
47
102
}
330
47
100
AcDbScale
 70
     0
300
4:1
140
4.0
141
1.0
290
     0
  0
SCALE
  5
56
102
{ACAD_REACTORS
330
47
102
}
330
47
100
AcDbScale
 70
     0
300
8:1
140
8.0
141
1.0
290
     0
  0
SCALE
  5
57
102
{ACAD_REACTORS
330
47
102
}
330
47
100
AcDbScale
 70
     0
300
10:1
140
10.0
141
1.0
290
     0
  0
SCALE
  5
58
102
{ACAD_REACTORS
330
47
102
}
330
47
100
AcDbScale
 70
     0
300
100:1
140
100.0
141
1.0
290
     0
  0
SCALE
  5
59
102
{ACAD_REACTORS
330
47
102
}
330
47
100
AcDbScale
 70
     0
300
1/128" = 1'-0"
140
0.0078125
141
12.0
290
     0
  0
SCALE
  5
5A
102
{ACAD_REACTORS
330
47
102
}
330
47
100
AcDbScale
 70
     0
300
1/64" = 1'-0"
140
0.015625
141
12.0
290
     0
  0
SCALE
  5
5B
102
{ACAD_REACTORS
330
47
102
}
330
47
100
AcDbScale
 70
     0
300
1/32" = 1'-0"
140
0.03125
141
12.0
290
     0
  0
SCALE
  5
5C
102
{ACAD_REACTORS
330
47
102
}
330
47
100
AcDbScale
 70
     0
300
1/16" = 1'-0"
140
0.0625
141
12.0
290
     0
  0
SCALE
  5
5D
102
{ACAD_REACTORS
330
47
102
}
330
47
100
AcDbScale
 70
     0
300
3/32" = 1'-0"
140
0.09375
141
12.0
290
     0
  0
SCALE
  5
5E
102
{ACAD_REACTORS
330
47
102
}
330
47
100
AcDbScale
 70
     0
300
1/8" = 1'-0"
140
0.125
141
12.0
290
     0
  0
SCALE
  5
5F
102
{ACAD_REACTORS
330
47
102
}
330
47
100
AcDbScale
 70
     0
300
3/16" = 1'-0"
140
0.1875
141
12.0
290
     0
  0
SCALE
  5
60
102
{ACAD_REACTORS
330
47
102
}
330
47
100
AcDbScale
 70
     0
300
1/4" = 1'-0"
140
0.25
141
12.0
290
     0
  0
SCALE
  5
61
102
{ACAD_REACTORS
330
47
102
}
330
47
100
AcDbScale
 70
     0
300
3/8" = 1'-0"
140
0.375
141
12.0
290
     0
  0
SCALE
  5
62
102
{ACAD_REACTORS
330
47
102
}
330
47
100
AcDbScale
 70
     0
300
1/2" = 1'-0"
140
0.5
141
12.0
290
     0
  0
SCALE
  5
63
102
{ACAD_REACTORS
330
47
102
}
330
47
100
AcDbScale
 70
     0
300
3/4" = 1'-0"
140
0.75
141
12.0
290
     0
  0
SCALE
  5
64
102
{ACAD_REACTORS
330
47
102
}
330
47
100
AcDbScale
 70
     0
300
1" = 1'-0"
140
1.0
141
12.0
290
     0
  0
SCALE
  5
65
102
{ACAD_REACTORS
330
47
102
}
330
47
100
AcDbScale
 70
     0
300
1-1/2" = 1'-0"
140
1.5
141
12.0
290
     0
  0
SCALE
  5
66
102
{ACAD_REACTORS
330
47
102
}
330
47
100
AcDbScale
 70
     0
300
3" = 1'-0"
140
3.0
141
12.0
290
     0
  0
SCALE
  5
67
102
{ACAD_REACTORS
330
47
102
}
330
47
100
AcDbScale
 70
     0
300
6" = 1'-0"
140
6.0
141
12.0
290
     0
  0
SCALE
  5
68
102
{ACAD_REACTORS
330
47
102
}
330
47
100
AcDbScale
 70
     0
300
1'-0" = 1'-0"
140
12.0
141
12.0
290
     0
  0
TABLESTYLE
  5
6A
102
{ACAD_REACTORS
330
69
102
}
102
{ACAD_XDICTIONARY
360
3B6
102
}
330
69
100
AcDbTableStyle
  3
Standard
 70
     0
 71
     0
 40
0.06
 41
0.06
280
     0
281
     0
  7
Standard
140
0.18
170
     2
 62
     0
 63
   257
283
     0
 90
        4
 91
        0
  1

274
    -2
284
     1
 64
     0
275
    -2
285
     1
 65
     0
276
    -2
286
     1
 66
     0
277
    -2
287
     1
 67
     0
278
    -2
288
     1
 68
     0
279
    -2
289
     1
 69
     0
  7
Standard
140
0.25
170
     5
 62
     0
 63
   257
283
     0
 90
        4
 91
        0
  1

274
    -2
284
     1
 64
     0
275
    -2
285
     1
 65
     0
276
    -2
286
     1
 66
     0
277
    -2
287
     1
 67
     0
278
    -2
288
     1
 68
     0
279
    -2
289
     1
 69
     0
  7
Standard
140
0.18
170
     5
 62
     0
 63
   257
283
     0
 90
        4
 91
        0
  1

274
    -2
284
     1
 64
     0
275
    -2
285
     1
 65
     0
276
    -2
286
     1
 66
     0
277
    -2
287
     1
 67
     0
278
    -2
288
     1
 68
     0
279
    -2
289
     1
 69
     0
  0
VISUALSTYLE
  5
2F
102
{ACAD_REACTORS
330
2A
102
}
102
{ACAD_XDICTIONARY
360
38E
102
}
330
2A
100
AcDbVisualStyle
  2
2dWireframe
 70
     4
 71
     0
 72
     2
 73
     0
 90
        0
 40
0.6
 41
30.0
 62
     5
 63
     7
421
 16777215
 74
     1
 91
        4
 64
     7
 65
   257
 75
     1
175
     1
 42
1.0
 92
        0
 66
   257
 43
1.0
 76
     1
 77
     6
 78
     2
 67
     7
 79
     5
170
     0
171
     0
290
     0
174
     0
 93
        1
 44
0.0
173
     0
291
     0
 45
0.0
  0
VISUALSTYLE
  5
32
102
{ACAD_REACTORS
330
2A
102
}
102
{ACAD_XDICTIONARY
360
394
102
}
330
2A
100
AcDbVisualStyle
  2
Basic
 70
     7
 71
     1
 72
     0
 73
     1
 90
        0
 40
0.6
 41
30.0
 62
     5
 63
     7
421
 16777215
 74
     0
 91
        4
 64
     7
 65
   257
 75
     1
175
     1
 42
1.0
 92
        8
 66
     7
 43
1.0
 76
     1
 77
     6
 78
     2
 67
     7
 79
     5
170
     0
171
     0
290
     0
174
     0
 93
        1
 44
0.0
173
     0
291
     1
 45
0.0
  0
VISUALSTYLE
  5
36
102
{ACAD_REACTORS
330
2A
102
}
102
{ACAD_XDICTIONARY
360
39C
102
}
330
2A
100
AcDbVisualStyle
  2
Brighten
 70
    12
 71
     2
 72
     2
 73
     0
 90
        0
 40
0.6
 41
30.0
 62
     5
 63
     7
421
 16777215
 74
     1
 91
        4
 64
     7
 65
   257
 75
     1
175
     1
 42
1.0
 92
        8
 66
     7
 43
1.0
 76
     1
 77
     6
 78
     2
 67
     7
 79
     5
170
     0
171
     0
290
     0
174
     0
 93
        1
 44
50.0
173
     0
291
     1
 45
0.0
  0
VISUALSTYLE
  5
3A
102
{ACAD_REACTORS
330
2A
102
}
102
{ACAD_XDICTIONARY
360
3A4
102
}
330
2A
100
AcDbVisualStyle
  2
ColorChange
 70
    16
 71
     2
 72
     2
 73
     3
 90
        0
 40
0.6
 41
30.0
 62
     5
 63
     8
421
  8421504
 74
     1
 91
        4
 64
     7
 65
   257
 75
     1
175
     1
 42
1.0
 92
        8
 66
     8
424
  8421504
 43
1.0
 76
     1
 77
     6
 78
     2
 67
     7
 79
     5
170
     0
171
     0
290
     0
174
     0
 93
        1
 44
0.0
173
     0
291
     1
 45
0.0
  0
VISUALSTYLE
  5
34
102
{ACAD_REACTORS
330
2A
102
}
102
{ACAD_XDICTIONARY
360
398
102
}
330
2A
100
AcDbVisualStyle
  2
Conceptual
 70
     9
 71
     3
 72
     2
 73
     0
 90
        0
 40
0.6
 41
30.0
 62
     5
 63
     7
421
 16777215
 74
     2
 91
        2
 64
     7
 65
   257
 75
     1
175
     1
 42
179.0
 92
        8
 66
     7
 43
1.0
 76
     1
 77
     6
 78
     2
 67
     7
 79
     3
170
     0
171
     0
290
     0
174
     0
 93
        1
 44
0.0
173
     0
291
     0
 45
0.0
  0
VISUALSTYLE
  5
35
102
{ACAD_REACTORS
330
2A
102
}
102
{ACAD_XDICTIONARY
360
39A
102
}
330
2A
100
AcDbVisualStyle
  2
Dim
 70
    11
 71
     2
 72
     2
 73
     0
 90
        0
 40
0.6
 41
30.0
 62
     5
 63
     7
421
 16777215
 74
     1
 91
        4
 64
     7
 65
   257
 75
     1
175
     1
 42
1.0
 92
        8
 66
     7
 43
1.0
 76
     1
 77
     6
 78
     2
 67
     7
 79
     5
170
     0
171
     0
290
     0
174
     0
 93
        1
 44
-50.0
173
     0
291
     1
 45
0.0
  0
VISUALSTYLE
  5
3D
102
{ACAD_REACTORS
330
2A
102
}
102
{ACAD_XDICTIONARY
360
3AA
102
}
330
2A
100
AcDbVisualStyle
  2
EdgeColorOff
 70
    22
 71
     2
 72
     2
 73
     0
 90
        0
 40
0.6
 41
30.0
 62
     5
 63
     7
421
 16777215
 74
     1
 91
        4
 64
     7
 65
   257
 75
     1
175
     1
 42
1.0
 92
        8
 66
     7
 43
1.0
 76
     1
 77
     6
 78
     2
 67
     7
 79
     5
170
     0
171
     0
290
     0
174
     0
 93
        1
 44
0.0
173
     0
291
     1
 45
0.0
  0
VISUALSTYLE
  5
39
102
{ACAD_REACTORS
330
2A
102
}
102
{ACAD_XDICTIONARY
360
3A2
102
}
330
2A
100
AcDbVisualStyle
  2
Facepattern
 70
    15
 71
     2
 72
     2
 73
     0
 90
        0
 40
0.6
 41
30.0
 62
     5
 63
     7
421
 16777215
 74
     1
 91
        4
 64
     7
 65
   257
 75
     1
175
     1
 42
1.0
 92
        8
 66
     7
 43
1.0
 76
     1
 77
     6
 78
     2
 67
     7
 79
     5
170
     0
171
     0
290
     0
174
     0
 93
        1
 44
0.0
173
     0
291
     1
 45
0.0
  0
VISUALSTYLE
  5
2B
102
{ACAD_REACTORS
330
2A
102
}
102
{ACAD_XDICTIONARY
360
386
102
}
330
2A
100
AcDbVisualStyle
  2
Flat
 70
     0
 71
     2
 72
     1
 73
     1
 90
        2
 40
0.6
 41
30.0
 62
     5
 63
     7
421
 16777215
 74
     0
 91
        0
 64
     7
 65
   257
 75
     1
175
     1
 42
1.0
 92
        8
 66
     7
 43
1.0
 76
     1
 77
     6
 78
     2
 67
     7
 79
     5
170
     0
171
     0
290
     0
174
     0
 93
       13
 44
0.0
173
     0
291
     1
 45
0.0
  0
VISUALSTYLE
  5
2C
102
{ACAD_REACTORS
330
2A
102
}
102
{ACAD_XDICTIONARY
360
388
102
}
330
2A
100
AcDbVisualStyle
  2
FlatWithEdges
 70
     1
 71
     2
 72
     1
 73
     1
 90
        2
 40
0.6
 41
30.0
 62
     5
 63
     7
421
 16777215
 74
     1
 91
        0
 64
     7
 65
   257
 75
     1
175
     1
 42
1.0
 92
        0
 66
   257
 43
1.0
 76
     1
 77
     6
 78
     2
 67
     7
 79
     5
170
     0
171
     0
290
     0
174
     0
 93
       13
 44
0.0
173
     0
291
     1
 45
0.0
  0
VISUALSTYLE
  5
2D
102
{ACAD_REACTORS
330
2A
102
}
102
{ACAD_XDICTIONARY
360
38A
102
}
330
2A
100
AcDbVisualStyle
  2
Gouraud
 70
     2
 71
     2
 72
     2
 73
     1
 90
        2
 40
0.6
 41
30.0
 62
     5
 63
     7
421
 16777215
 74
     0
 91
        0
 64
     7
 65
   257
 75
     1
175
     1
 42
1.0
 92
        0
 66
     7
 43
1.0
 76
     1
 77
     6
 78
     2
 67
     7
 79
     5
170
     0
171
     0
290
     0
174
     0
 93
       13
 44
0.0
173
     0
291
     1
 45
0.0
  0
VISUALSTYLE
  5
2E
102
{ACAD_REACTORS
330
2A
102
}
102
{ACAD_XDICTIONARY
360
38C
102
}
330
2A
100
AcDbVisualStyle
  2
GouraudWithEdges
 70
     3
 71
     2
 72
     2
 73
     1
 90
        2
 40
0.6
 41
30.0
 62
     5
 63
     7
421
 16777215
 74
     1
 91
        0
 64
     7
 65
   257
 75
     1
175
     1
 42
1.0
 92
        0
 66
   257
 43
1.0
 76
     1
 77
     6
 78
     2
 67
     7
 79
     5
170
     0
171
     0
290
     0
174
     0
 93
       13
 44
0.0
173
     0
291
     1
 45
0.0
  0
VISUALSTYLE
  5
31
102
{ACAD_REACTORS
330
2A
102
}
102
{ACAD_XDICTIONARY
360
392
102
}
330
2A
100
AcDbVisualStyle
  2
Hidden
 70
     6
 71
     1
 72
     2
 73
     2
 90
        0
 40
0.6
 41
30.0
 62
     5
 63
     7
421
 16777215
 74
     2
 91
        2
 64
     7
 65
   257
 75
     2
175
     1
 42
40.0
 92
        0
 66
   257
 43
1.0
 76
     1
 77
     6
 78
     2
 67
     7
 79
     3
170
     0
171
     0
290
     0
174
     0
 93
        1
 44
0.0
173
     0
291
     0
 45
0.0
  0
VISUALSTYLE
  5
3B
102
{ACAD_REACTORS
330
2A
102
}
102
{ACAD_XDICTIONARY
360
3A6
102
}
330
2A
100
AcDbVisualStyle
  2
JitterOff
 70
    20
 71
     2
 72
     2
 73
     0
 90
        0
 40
0.6
 41
30.0
 62
     5
 63
     7
421
 16777215
 74
     1
 91
        4
 64
     7
 65
   257
 75
     1
175
     1
 42
1.0
 92
       10
 66
     7
 43
1.0
 76
     1
 77
     6
 78
     2
 67
     7
 79
     5
170
     0
171
     0
290
     0
174
     0
 93
        1
 44
0.0
173
     0
291
     1
 45
0.0
  0
VISUALSTYLE
  5
38
102
{ACAD_REACTORS
330
2A
102
}
102
{ACAD_XDICTIONARY
360
3A0
102
}
330
2A
100
AcDbVisualStyle
  2
Linepattern
 70
    14
 71
     2
 72
     2
 73
     0
 90
        0
 40
0.6
 41
30.0
 62
     5
 63
     7
421
 16777215
 74
     1
 91
        4
 64
     7
 65
   257
 75
     7
175
     7
 42
1.0
 92
        8
 66
     7
 43
1.0
 76
     1
 77
     6
 78
     2
 67
     7
 79
     5
170
     0
171
     0
290
     0
174
     0
 93
        1
 44
0.0
173
     0
291
     1
 45
0.0
  0
VISUALSTYLE
  5
3C
102
{ACAD_REACTORS
330
2A
102
}
102
{ACAD_XDICTIONARY
360
3A8
102
}
330
2A
100
AcDbVisualStyle
  2
OverhangOff
 70
    21
 71
     2
 72
     2
 73
     0
 90
        0
 40
0.6
 41
30.0
 62
     5
 63
     7
421
 16777215
 74
     1
 91
        4
 64
     7
 65
   257
 75
     1
175
     1
 42
1.0
 92
        9
 66
     7
 43
1.0
 76
     1
 77
     6
 78
     2
 67
     7
 79
     5
170
     0
171
     0
290
     0
174
     0
 93
        1
 44
0.0
173
     0
291
     1
 45
0.0
  0
VISUALSTYLE
  5
33
102
{ACAD_REACTORS
330
2A
102
}
102
{ACAD_XDICTIONARY
360
396
102
}
330
2A
100
AcDbVisualStyle
  2
Realistic
 70
     8
 71
     2
 72
     3
 73
     0
 90
        2
 40
0.6
 41
30.0
 62
     5
 63
     7
421
 16777215
 74
     0
 91
        0
 64
     7
 65
   257
 75
     1
175
     1
 42
1.0
 92
        8
 66
   257
 43
1.0
 76
     1
 77
     6
 78
     2
 67
     7
 79
     3
170
     0
171
     0
290
     0
174
     0
 93
       13
 44
0.0
173
     0
291
     0
 45
0.0
  0
VISUALSTYLE
  5
42
102
{ACAD_REACTORS
330
2A
102
}
102
{ACAD_XDICTIONARY
360
3B4
102
}
330
2A
100
AcDbVisualStyle
  2
Shaded
 70
    27
 71
     2
 72
     2
 73
     1
 90
        2
 40
0.6
 41
30.0
 62
     5
 63
     7
421
 16777215
 74
     0
 91
        4
 64
     7
 65
   257
 75
     1
175
     1
 42
1.0
 92
        8
 66
   257
 43
1.0
 76
     1
 77
     6
 78
     2
 67
     8
425
  7895160
 79
     3
170
     0
171
     0
290
     0
174
     0
 93
        5
 44
0.0
173
     0
291
     0
 45
0.0
  0
VISUALSTYLE
  5
41
102
{ACAD_REACTORS
330
2A
102
}
102
{ACAD_XDICTIONARY
360
3B2
102
}
330
2A
100
AcDbVisualStyle
  2
Shaded with edges
 70
    26
 71
     2
 72
     2
 73
     1
 90
        2
 40
0.6
 41
30.0
 62
     5
 63
     7
421
 16777215
 74
     1
 91
       10
 64
     7
 65
   257
 75
     2
175
     1
 42
1.0
 92
        8
 66
   257
 43
1.0
 76
     1
 77
     6
 78
     2
 67
     7
 79
     3
170
     0
171
     0
290
     0
174
     0
 93
        5
 44
0.0
173
     0
291
     0
 45
0.0
  0
VISUALSTYLE
  5
3E
102
{ACAD_REACTORS
330
2A
102
}
102
{ACAD_XDICTIONARY
360
3AC
102
}
330
2A
100
AcDbVisualStyle
  2
Shades of Gray
 70
    23
 71
     2
 72
     2
 73
     3
 90
        0
 40
0.6
 41
30.0
 62
     5
 63
     7
421
 16777215
 74
     2
 91
        2
 64
     7
 65
     7
 75
     1
175
     1
 42
40.0
 92
        8
 66
     7
 43
1.0
 76
     1
 77
     6
 78
     2
 67
     7
 79
     3
170
     0
171
     0
290
     0
174
     0
 93
        1
 44
0.0
173
     0
291
     0
 45
0.0
  0
VISUALSTYLE
  5
3F
102
{ACAD_REACTORS
330
2A
102
}
102
{ACAD_XDICTIONARY
360
3AE
102
}
330
2A
100
AcDbVisualStyle
  2
Sketchy
 70
    24
 71
     1
 72
     2
 73
     2
 90
        0
 40
0.6
 41
30.0
 62
     5
 63
     7
421
 16777215
 74
     2
 91
        2
 64
     7
 65
     7
 75
     1
175
     1
 42
40.0
 92
       11
 66
     7
 43
1.0
 76
     1
 77
     6
 78
     2
 67
     7
 79
     6
170
     0
171
     0
290
     0
174
     0
 93
        1
 44
0.0
173
     0
291
     0
 45
0.0
  0
VISUALSTYLE
  5
37
102
{ACAD_REACTORS
330
2A
102
}
102
{ACAD_XDICTIONARY
360
39E
102
}
330
2A
100
AcDbVisualStyle
  2
Thicken
 70
    13
 71
     2
 72
     2
 73
     0
 90
        0
 40
0.6
 41
30.0
 62
     5
 63
     7
421
 16777215
 74
     1
 91
        4
 64
     7
 65
   257
 75
     1
175
     1
 42
1.0
 92
       12
 66
     7
 43
1.0
 76
     1
 77
     6
 78
     2
 67
     7
 79
     5
170
     0
171
     0
290
     0
174
     0
 93
        1
 44
0.0
173
     0
291
     1
 45
0.0
  0
VISUALSTYLE
  5
30
102
{ACAD_REACTORS
330
2A
102
}
102
{ACAD_XDICTIONARY
360
390
102
}
330
2A
100
AcDbVisualStyle
  2
Wireframe
 70
     5
 71
     0
 72
     2
 73
     0
 90
        0
 40
0.6
 41
30.0
 62
     5
 63
     7
421
 16777215
 74
     1
 91
        4
 64
     7
 65
   257
 75
     1
175
     1
 42
1.0
 92
        0
 66
   257
 43
1.0
 76
     1
 77
     6
 78
     2
 67
     7
 79
     3
170
     0
171
     0
290
     0
174
     0
 93
        1
 44
0.0
173
     0
291
     0
 45
0.0
  0
VISUALSTYLE
  5
40
102
{ACAD_REACTORS
330
2A
102
}
102
{ACAD_XDICTIONARY
360
3B0
102
}
330
2A
100
AcDbVisualStyle
  2
X-Ray
 70
    25
 71
     2
 72
     2
 73
     1
 90
        1
 40
0.5
 41
30.0
 62
     5
 63
     7
421
 16777215
 74
     1
 91
        0
 64
     7
 65
   257
 75
     1
175
     1
 42
1.0
 92
        8
 66
     7
 43
1.0
 76
     1
 77
     6
 78
     2
 67
     7
 79
     3
170
     0
171
     0
290
     0
174
     0
 93
       13
 44
0.0
173
     0
291
     0
 45
0.0
  0
DICTIONARYVAR
  5
384
102
{ACAD_REACTORS
330
383
102
}
330
383
100
DictionaryVariables
280
     0
  1
1:1
  0
DICTIONARYVAR
  5
3BD
102
{ACAD_REACTORS
330
383
102
}
330
383
100
DictionaryVariables
280
     0
  1
Standard
  0
DICTIONARYVAR
  5
3BC
102
{ACAD_REACTORS
330
383
102
}
330
383
100
DictionaryVariables
280
     0
  1
Standard
  0
DICTIONARYVAR
  5
385
102
{ACAD_REACTORS
330
383
102
}
330
383
100
DictionaryVariables
280
     0
  1
2
  0
DICTIONARY
  5
3B9
330
6C
100
AcDbDictionary
280
     1
281
     1
  3
ACAD_XREC_ROUNDTRIP
360
3BA
  0
DICTIONARY
  5
3B6
330
6A
100
AcDbDictionary
280
     1
281
     1
  3
ACAD_ROUNDTRIP_2008_TABLESTYLE_CELLSTYLEMAP
360
3B7
  0
DICTIONARY
  5
38E
330
2F
100
AcDbDictionary
280
     1
281
     1
  3
ACAD_XREC_ROUNDTRIP
360
38F
  0
DICTIONARY
  5
394
330
32
100
AcDbDictionary
280
     1
281
     1
  3
ACAD_XREC_ROUNDTRIP
360
395
  0
DICTIONARY
  5
39C
330
36
100
AcDbDictionary
280
     1
281
     1
  3
ACAD_XREC_ROUNDTRIP
360
39D
  0
DICTIONARY
  5
3A4
330
3A
100
AcDbDictionary
280
     1
281
     1
  3
ACAD_XREC_ROUNDTRIP
360
3A5
  0
DICTIONARY
  5
398
330
34
100
AcDbDictionary
280
     1
281
     1
  3
ACAD_XREC_ROUNDTRIP
360
399
  0
DICTIONARY
  5
39A
330
35
100
AcDbDictionary
280
     1
281
     1
  3
ACAD_XREC_ROUNDTRIP
360
39B
  0
DICTIONARY
  5
3AA
330
3D
100
AcDbDictionary
280
     1
281
     1
  3
ACAD_XREC_ROUNDTRIP
360
3AB
  0
DICTIONARY
  5
3A2
330
39
100
AcDbDictionary
280
     1
281
     1
  3
ACAD_XREC_ROUNDTRIP
360
3A3
  0
DICTIONARY
  5
386
330
2B
100
AcDbDictionary
280
     1
281
     1
  3
ACAD_XREC_ROUNDTRIP
360
387
  0
DICTIONARY
  5
388
330
2C
100
AcDbDictionary
280
     1
281
     1
  3
ACAD_XREC_ROUNDTRIP
360
389
  0
DICTIONARY
  5
38A
330
2D
100
AcDbDictionary
280
     1
281
     1
  3
ACAD_XREC_ROUNDTRIP
360
38B
  0
DICTIONARY
  5
38C
330
2E
100
AcDbDictionary
280
     1
281
     1
  3
ACAD_XREC_ROUNDTRIP
360
38D
  0
DICTIONARY
  5
392
330
31
100
AcDbDictionary
280
     1
281
     1
  3
ACAD_XREC_ROUNDTRIP
360
393
  0
DICTIONARY
  5
3A6
330
3B
100
AcDbDictionary
280
     1
281
     1
  3
ACAD_XREC_ROUNDTRIP
360
3A7
  0
DICTIONARY
  5
3A0
330
38
100
AcDbDictionary
280
     1
281
     1
  3
ACAD_XREC_ROUNDTRIP
360
3A1
  0
DICTIONARY
  5
3A8
330
3C
100
AcDbDictionary
280
     1
281
     1
  3
ACAD_XREC_ROUNDTRIP
360
3A9
  0
DICTIONARY
  5
396
330
33
100
AcDbDictionary
280
     1
281
     1
  3
ACAD_XREC_ROUNDTRIP
360
397
  0
DICTIONARY
  5
3B4
330
42
100
AcDbDictionary
280
     1
281
     1
  3
ACAD_XREC_ROUNDTRIP
360
3B5
  0
DICTIONARY
  5
3B2
330
41
100
AcDbDictionary
280
     1
281
     1
  3
ACAD_XREC_ROUNDTRIP
360
3B3
  0
DICTIONARY
  5
3AC
330
3E
100
AcDbDictionary
280
     1
281
     1
  3
ACAD_XREC_ROUNDTRIP
360
3AD
  0
DICTIONARY
  5
3AE
330
3F
100
AcDbDictionary
280
     1
281
     1
  3
ACAD_XREC_ROUNDTRIP
360
3AF
  0
DICTIONARY
  5
39E
330
37
100
AcDbDictionary
280
     1
281
     1
  3
ACAD_XREC_ROUNDTRIP
360
39F
  0
DICTIONARY
  5
390
330
30
100
AcDbDictionary
280
     1
281
     1
  3
ACAD_XREC_ROUNDTRIP
360
391
  0
DICTIONARY
  5
3B0
330
40
100
AcDbDictionary
280
     1
281
     1
  3
ACAD_XREC_ROUNDTRIP
360
3B1
  0
XRECORD
  5
3BA
102
{ACAD_REACTORS
330
3B9
102
}
330
3B9
100
AcDbXrecord
280
     1
102
ACAD_ROUNDTRIP_2010_MLEADER_STYLE
  0
CELLSTYLEMAP
  5
3B7
102
{ACAD_REACTORS
330
3B6
102
}
330
3B6
100
AcDbCellStyleMap
 90
        3
300
CELLSTYLE
  1
TABLEFORMAT_BEGIN
 90
        5
170
     1
 91
        0
 92
    32768
 62
   257
 93
        1
300
CONTENTFORMAT
  1
CONTENTFORMAT_BEGIN
 90
        0
 91
        0
 92
        4
 93
        0
300

 40
0.0
140
1.0
 94
        5
 62
     0
340
11
144
0.25
309
CONTENTFORMAT_END
171
     1
301
MARGIN
  1
CELLMARGIN_BEGIN
 40
0.06
 40
0.06
 40
0.06
 40
0.06
 40
0.06
 40
0.06
309
CELLMARGIN_END
 94
        6
 95
        1
302
GRIDFORMAT
  1
GRIDFORMAT_BEGIN
 90
        0
 91
        1
 62
     0
 92
       -2
340
14
 93
        0
 40
0.045
309
GRIDFORMAT_END
 95
        2
302
GRIDFORMAT
  1
GRIDFORMAT_BEGIN
 90
        0
 91
        1
 62
     0
 92
       -2
340
14
 93
        0
 40
0.045
309
GRIDFORMAT_END
 95
        4
302
GRIDFORMAT
  1
GRIDFORMAT_BEGIN
 90
        0
 91
        1
 62
     0
 92
       -2
340
14
 93
        0
 40
0.045
309
GRIDFORMAT_END
 95
        8
302
GRIDFORMAT
  1
GRIDFORMAT_BEGIN
 90
        0
 91
        1
 62
     0
 92
       -2
340
14
 93
        0
 40
0.045
309
GRIDFORMAT_END
 95
       16
302
GRIDFORMAT
  1
GRIDFORMAT_BEGIN
 90
        0
 91
        1
 62
     0
 92
       -2
340
14
 93
        0
 40
0.045
309
GRIDFORMAT_END
 95
       32
302
GRIDFORMAT
  1
GRIDFORMAT_BEGIN
 90
        0
 91
        1
 62
     0
 92
       -2
340
14
 93
        0
 40
0.045
309
GRIDFORMAT_END
309
TABLEFORMAT_END
  1
CELLSTYLE_BEGIN
 90
        1
 91
        1
300
_TITLE
309
CELLSTYLE_END
300
CELLSTYLE
  1
TABLEFORMAT_BEGIN
 90
        5
170
     1
 91
        0
 92
        0
 62
   257
 93
        1
300
CONTENTFORMAT
  1
CONTENTFORMAT_BEGIN
 90
        0
 91
        0
 92
        4
 93
        0
300

 40
0.0
140
1.0
 94
        5
 62
     0
340
11
144
0.18
309
CONTENTFORMAT_END
171
     1
301
MARGIN
  1
CELLMARGIN_BEGIN
 40
0.06
 40
0.06
 40
0.06
 40
0.06
 40
0.06
 40
0.06
309
CELLMARGIN_END
 94
        6
 95
        1
302
GRIDFORMAT
  1
GRIDFORMAT_BEGIN
 90
        0
 91
        1
 62
     0
 92
       -2
340
14
 93
        0
 40
0.045
309
GRIDFORMAT_END
 95
        2
302
GRIDFORMAT
  1
GRIDFORMAT_BEGIN
 90
        0
 91
        1
 62
     0
 92
       -2
340
14
 93
        0
 40
0.045
309
GRIDFORMAT_END
 95
        4
302
GRIDFORMAT
  1
GRIDFORMAT_BEGIN
 90
        0
 91
        1
 62
     0
 92
       -2
340
14
 93
        0
 40
0.045
309
GRIDFORMAT_END
 95
        8
302
GRIDFORMAT
  1
GRIDFORMAT_BEGIN
 90
        0
 91
        1
 62
     0
 92
       -2
340
14
 93
        0
 40
0.045
309
GRIDFORMAT_END
 95
       16
302
GRIDFORMAT
  1
GRIDFORMAT_BEGIN
 90
        0
 91
        1
 62
     0
 92
       -2
340
14
 93
        0
 40
0.045
309
GRIDFORMAT_END
 95
       32
302
GRIDFORMAT
  1
GRIDFORMAT_BEGIN
 90
        0
 91
        1
 62
     0
 92
       -2
340
14
 93
        0
 40
0.045
309
GRIDFORMAT_END
309
TABLEFORMAT_END
  1
CELLSTYLE_BEGIN
 90
        2
 91
        1
300
_HEADER
309
CELLSTYLE_END
300
CELLSTYLE
  1
TABLEFORMAT_BEGIN
 90
        5
170
     1
 91
        0
 92
        0
 62
   257
 93
        1
300
CONTENTFORMAT
  1
CONTENTFORMAT_BEGIN
 90
        0
 91
        0
 92
        4
 93
        0
300

 40
0.0
140
1.0
 94
        2
 62
     0
340
11
144
0.18
309
CONTENTFORMAT_END
171
     1
301
MARGIN
  1
CELLMARGIN_BEGIN
 40
0.06
 40
0.06
 40
0.06
 40
0.06
 40
0.06
 40
0.06
309
CELLMARGIN_END
 94
        6
 95
        1
302
GRIDFORMAT
  1
GRIDFORMAT_BEGIN
 90
        0
 91
        1
 62
     0
 92
       -2
340
14
 93
        0
 40
0.045
309
GRIDFORMAT_END
 95
        2
302
GRIDFORMAT
  1
GRIDFORMAT_BEGIN
 90
        0
 91
        1
 62
     0
 92
       -2
340
14
 93
        0
 40
0.045
309
GRIDFORMAT_END
 95
        4
302
GRIDFORMAT
  1
GRIDFORMAT_BEGIN
 90
        0
 91
        1
 62
     0
 92
       -2
340
14
 93
        0
 40
0.045
309
GRIDFORMAT_END
 95
        8
302
GRIDFORMAT
  1
GRIDFORMAT_BEGIN
 90
        0
 91
        1
 62
     0
 92
       -2
340
14
 93
        0
 40
0.045
309
GRIDFORMAT_END
 95
       16
302
GRIDFORMAT
  1
GRIDFORMAT_BEGIN
 90
        0
 91
        1
 62
     0
 92
       -2
340
14
 93
        0
 40
0.045
309
GRIDFORMAT_END
 95
       32
302
GRIDFORMAT
  1
GRIDFORMAT_BEGIN
 90
        0
 91
        1
 62
     0
 92
       -2
340
14
 93
        0
 40
0.045
309
GRIDFORMAT_END
309
TABLEFORMAT_END
  1
CELLSTYLE_BEGIN
 90
        3
 91
        2
300
_DATA
309
CELLSTYLE_END
  0
XRECORD
  5
38F
102
{ACAD_REACTORS
330
38E
102
}
330
38E
100
AcDbXrecord
280
     1
102
RTVSPropertyOp0
 70
     1
102
RTVSPropertyOp1
 70
     1
102
RTVSPropertyOp2
 70
     1
102
RTVSPropertyOp3
 70
     1
102
RTVSPropertyOp4
 70
     1
102
RTVSPropertyOp5
 70
     1
102
RTVSPropertyOp6
 70
     1
102
RTVSPropertyOp7
 70
     1
102
RTVSPropertyOp8
 70
     1
102
RTVSPropertyOp9
 70
     1
102
RTVSPropertyOp10
 70
     1
102
RTVSPropertyOp11
 70
     1
102
RTVSPropertyOp12
 70
     1
102
RTVSPropertyOp13
 70
     1
102
RTVSPropertyOp14
 70
     1
102
RTVSPropertyOp15
 70
     1
102
RTVSPropertyOp16
 70
     1
102
RTVSPropertyOp17
 70
     1
102
RTVSPropertyOp18
 70
     1
102
RTVSPropertyOp19
 70
     1
102
RTVSPropertyOp20
 70
     1
102
RTVSPropertyOp21
 70
     1
102
RTVSPropertyOp22
 70
     1
102
RTVSPropertyOp23
 70
     1
102
RTVSPropertyOp24
 70
     1
102
RTVSPropertyOp25
 70
     1
102
RTVSPropertyOp26
 70
     1
102
RTVSPropertyOp27
 70
     1
102
RTVSPropertyOp28
 70
     1
102
RTVSPropertyOp29
 70
     1
102
RTVSPropertyOp30
 70
     1
102
RTVSPropertyOp31
 70
     1
102
RTVSPropertyOp32
 70
     1
102
RTVSPropertyOp33
 70
     1
102
RTVSPropertyOp34
 70
     1
102
RTVSPropertyOp35
 70
     1
102
RTVSPropertyOp36
 70
     1
102
RTVSPropertyOp37
 70
     1
102
RTVSPropertyOp38
 70
     1
102
RTVSPropertyOp39
 70
     1
102
RTVSPropertyOp40
 70
     1
102
RTVSPropertyOp41
 70
     1
102
RTVSPropertyOp42
 70
     1
102
RTVSPropertyOp43
 70
     1
102
RTVSPropertyOp44
 70
     1
102
RTVSPropertyOp45
 70
     1
102
RTVSPropertyOp46
 70
     1
102
RTVSPropertyOp47
 70
     1
102
RTVSPropertyOp48
 70
     1
102
RTVSPropertyOp49
 70
     1
102
RTVSPropertyOp50
 70
     1
102
RTVSPropertyOp51
 70
     0
102
RTVSPropertyOp52
 70
     0
102
RTVSPropertyOp53
 70
     1
102
RTVSPropertyOp54
 70
     1
102
RTVSPropertyOp55
 70
     1
102
RTVSPropertyOp56
 70
     1
102
RTVSPropertyOp57
 70
     1
102
RTVSPost2010Prop28
280
     1
102
RTVSPost2010PropOp28
 70
     1
102
RTVSPost2010Prop29
280
     1
102
RTVSPost2010PropOp29
 70
     1
102
RTVSPost2010Prop30
280
     0
102
RTVSPost2010PropOp30
 70
     1
102
RTVSPost2010Prop31
280
     0
102
RTVSPost2010PropOp31
 70
     1
102
RTVSPost2010Prop32
280
     0
102
RTVSPost2010PropOp32
 70
     1
102
RTVSPost2010Prop33
280
     0
102
RTVSPost2010PropOp33
 70
     1
102
RTVSPost2010Prop34
280
     0
102
RTVSPost2010PropOp34
 70
     1
102
RTVSPost2010Prop35
280
     0
102
RTVSPost2010PropOp35
 70
     1
102
RTVSPost2010Prop36
280
     0
102
RTVSPost2010PropOp36
 70
     1
102
RTVSPost2010Prop37
 90
       50
102
RTVSPost2010PropOp37
 70
     1
102
RTVSPost2010Prop38
140
0.0
102
RTVSPost2010PropOp38
 70
     1
102
RTVSPost2010Prop39
140
1.0
102
RTVSPost2010PropOp39
 70
     1
102
RTVSPost2010Prop40
 90
        0
102
RTVSPost2010PropOp40
 70
     1
102
RTVSPost2010Prop41ColorIndex
 90
       18
102
RTVSPost2010Prop41ColorRGB
 90
        0
102
RTVSPost2010PropOp41
 70
     1
102
RTVSPost2010Prop42
 90
       50
102
RTVSPost2010PropOp42
 70
     1
102
RTVSPost2010Prop43
 90
        3
102
RTVSPost2010PropOp43
 70
     1
102
RTVSPost2010Prop44ColorIndex
 90
        5
102
RTVSPost2010Prop44ColorRGB
 90
      255
102
RTVSPost2010PropOp44
 70
     1
102
RTVSPost2010Prop45
280
     0
102
RTVSPost2010PropOp45
 70
     1
102
RTVSPost2010Prop46
 90
       50
102
RTVSPost2010PropOp46
 70
     1
102
RTVSPost2010Prop47
 90
       50
102
RTVSPost2010PropOp47
 70
     1
102
RTVSPost2010Prop48
 90
       50
102
RTVSPost2010PropOp48
 70
     1
102
RTVSPost2010Prop49
280
     0
102
RTVSPost2010PropOp49
 70
     1
102
RTVSPost2010Prop50
 90
       50
102
RTVSPost2010PropOp50
 70
     1
102
RTVSPost2010Prop51ColorIndex
 90
      256
102
RTVSPost2010Prop51ColorRGB
 90
-16777216
102
RTVSPost2010PropOp51
 70
     0
102
RTVSPost2010Prop52
140
1.0
102
RTVSPost2010PropOp52
 70
     0
102
RTVSPost2010Prop53
 90
        2
102
RTVSPost2010PropOp53
 70
     1
102
RTVSPost2010Prop54
  1
strokes_ogs.tif
102
RTVSPost2010PropOp54
 70
     1
102
RTVSPost2010Prop55
280
     0
102
RTVSPost2010PropOp55
 70
     1
102
RTVSPost2010Prop56
140
1.0
102
RTVSPost2010PropOp56
 70
     1
102
RTVSPost2010Prop57
140
1.0
102
RTVSPost2010PropOp57
 70
     1
  0
XRECORD
  5
395
102
{ACAD_REACTORS
330
394
102
}
330
394
100
AcDbXrecord
280
     1
102
RTVSPropertyOp0
 70
     1
102
RTVSPropertyOp1
 70
     1
102
RTVSPropertyOp2
 70
     1
102
RTVSPropertyOp3
 70
     1
102
RTVSPropertyOp4
 70
     1
102
RTVSPropertyOp5
 70
     1
102
RTVSPropertyOp6
 70
     1
102
RTVSPropertyOp7
 70
     1
102
RTVSPropertyOp8
 70
     1
102
RTVSPropertyOp9
 70
     1
102
RTVSPropertyOp10
 70
     1
102
RTVSPropertyOp11
 70
     1
102
RTVSPropertyOp12
 70
     1
102
RTVSPropertyOp13
 70
     1
102
RTVSPropertyOp14
 70
     1
102
RTVSPropertyOp15
 70
     1
102
RTVSPropertyOp16
 70
     1
102
RTVSPropertyOp17
 70
     1
102
RTVSPropertyOp18
 70
     1
102
RTVSPropertyOp19
 70
     1
102
RTVSPropertyOp20
 70
     1
102
RTVSPropertyOp21
 70
     1
102
RTVSPropertyOp22
 70
     1
102
RTVSPropertyOp23
 70
     1
102
RTVSPropertyOp24
 70
     1
102
RTVSPropertyOp25
 70
     1
102
RTVSPropertyOp26
 70
     1
102
RTVSPropertyOp27
 70
     1
102
RTVSPropertyOp28
 70
     1
102
RTVSPropertyOp29
 70
     1
102
RTVSPropertyOp30
 70
     1
102
RTVSPropertyOp31
 70
     1
102
RTVSPropertyOp32
 70
     1
102
RTVSPropertyOp33
 70
     1
102
RTVSPropertyOp34
 70
     1
102
RTVSPropertyOp35
 70
     1
102
RTVSPropertyOp36
 70
     1
102
RTVSPropertyOp37
 70
     1
102
RTVSPropertyOp38
 70
     1
102
RTVSPropertyOp39
 70
     1
102
RTVSPropertyOp40
 70
     1
102
RTVSPropertyOp41
 70
     1
102
RTVSPropertyOp42
 70
     1
102
RTVSPropertyOp43
 70
     1
102
RTVSPropertyOp44
 70
     1
102
RTVSPropertyOp45
 70
     1
102
RTVSPropertyOp46
 70
     1
102
RTVSPropertyOp47
 70
     1
102
RTVSPropertyOp48
 70
     1
102
RTVSPropertyOp49
 70
     1
102
RTVSPropertyOp50
 70
     1
102
RTVSPropertyOp51
 70
     0
102
RTVSPropertyOp52
 70
     0
102
RTVSPropertyOp53
 70
     1
102
RTVSPropertyOp54
 70
     1
102
RTVSPropertyOp55
 70
     1
102
RTVSPropertyOp56
 70
     1
102
RTVSPropertyOp57
 70
     1
102
RTVSPost2010Prop28
280
     0
102
RTVSPost2010PropOp28
 70
     1
102
RTVSPost2010Prop29
280
     1
102
RTVSPost2010PropOp29
 70
     1
102
RTVSPost2010Prop30
280
     1
102
RTVSPost2010PropOp30
 70
     1
102
RTVSPost2010Prop31
280
     0
102
RTVSPost2010PropOp31
 70
     1
102
RTVSPost2010Prop32
280
     0
102
RTVSPost2010PropOp32
 70
     1
102
RTVSPost2010Prop33
280
     0
102
RTVSPost2010PropOp33
 70
     1
102
RTVSPost2010Prop34
280
     0
102
RTVSPost2010PropOp34
 70
     1
102
RTVSPost2010Prop35
280
     0
102
RTVSPost2010PropOp35
 70
     1
102
RTVSPost2010Prop36
280
     0
102
RTVSPost2010PropOp36
 70
     1
102
RTVSPost2010Prop37
 90
       50
102
RTVSPost2010PropOp37
 70
     1
102
RTVSPost2010Prop38
140
0.0
102
RTVSPost2010PropOp38
 70
     1
102
RTVSPost2010Prop39
140
1.0
102
RTVSPost2010PropOp39
 70
     1
102
RTVSPost2010Prop40
 90
        0
102
RTVSPost2010PropOp40
 70
     1
102
RTVSPost2010Prop41ColorIndex
 90
       18
102
RTVSPost2010Prop41ColorRGB
 90
        0
102
RTVSPost2010PropOp41
 70
     1
102
RTVSPost2010Prop42
 90
       50
102
RTVSPost2010PropOp42
 70
     1
102
RTVSPost2010Prop43
 90
        3
102
RTVSPost2010PropOp43
 70
     1
102
RTVSPost2010Prop44ColorIndex
 90
        5
102
RTVSPost2010Prop44ColorRGB
 90
      255
102
RTVSPost2010PropOp44
 70
     1
102
RTVSPost2010Prop45
280
     0
102
RTVSPost2010PropOp45
 70
     1
102
RTVSPost2010Prop46
 90
       50
102
RTVSPost2010PropOp46
 70
     1
102
RTVSPost2010Prop47
 90
       50
102
RTVSPost2010PropOp47
 70
     1
102
RTVSPost2010Prop48
 90
       50
102
RTVSPost2010PropOp48
 70
     1
102
RTVSPost2010Prop49
280
     0
102
RTVSPost2010PropOp49
 70
     1
102
RTVSPost2010Prop50
 90
       50
102
RTVSPost2010PropOp50
 70
     1
102
RTVSPost2010Prop51ColorIndex
 90
      256
102
RTVSPost2010Prop51ColorRGB
 90
-16777216
102
RTVSPost2010PropOp51
 70
     0
102
RTVSPost2010Prop52
140
1.0
102
RTVSPost2010PropOp52
 70
     0
102
RTVSPost2010Prop53
 90
        2
102
RTVSPost2010PropOp53
 70
     1
102
RTVSPost2010Prop54
  1
strokes_ogs.tif
102
RTVSPost2010PropOp54
 70
     1
102
RTVSPost2010Prop55
280
     0
102
RTVSPost2010PropOp55
 70
     1
102
RTVSPost2010Prop56
140
1.0
102
RTVSPost2010PropOp56
 70
     1
102
RTVSPost2010Prop57
140
1.0
102
RTVSPost2010PropOp57
 70
     1
  0
XRECORD
  5
39D
102
{ACAD_REACTORS
330
39C
102
}
330
39C
100
AcDbXrecord
280
     1
102
RTVSPropertyOp0
 70
     1
102
RTVSPropertyOp1
 70
     1
102
RTVSPropertyOp2
 70
     1
102
RTVSPropertyOp3
 70
     1
102
RTVSPropertyOp4
 70
     1
102
RTVSPropertyOp5
 70
     1
102
RTVSPropertyOp6
 70
     1
102
RTVSPropertyOp7
 70
     1
102
RTVSPropertyOp8
 70
     1
102
RTVSPropertyOp9
 70
     1
102
RTVSPropertyOp10
 70
     1
102
RTVSPropertyOp11
 70
     1
102
RTVSPropertyOp12
 70
     1
102
RTVSPropertyOp13
 70
     1
102
RTVSPropertyOp14
 70
     1
102
RTVSPropertyOp15
 70
     1
102
RTVSPropertyOp16
 70
     1
102
RTVSPropertyOp17
 70
     1
102
RTVSPropertyOp18
 70
     1
102
RTVSPropertyOp19
 70
     1
102
RTVSPropertyOp20
 70
     1
102
RTVSPropertyOp21
 70
     1
102
RTVSPropertyOp22
 70
     1
102
RTVSPropertyOp23
 70
     1
102
RTVSPropertyOp24
 70
     1
102
RTVSPropertyOp25
 70
     1
102
RTVSPropertyOp26
 70
     1
102
RTVSPropertyOp27
 70
     1
102
RTVSPropertyOp28
 70
     1
102
RTVSPropertyOp29
 70
     1
102
RTVSPropertyOp30
 70
     1
102
RTVSPropertyOp31
 70
     1
102
RTVSPropertyOp32
 70
     1
102
RTVSPropertyOp33
 70
     1
102
RTVSPropertyOp34
 70
     1
102
RTVSPropertyOp35
 70
     1
102
RTVSPropertyOp36
 70
     1
102
RTVSPropertyOp37
 70
     1
102
RTVSPropertyOp38
 70
     1
102
RTVSPropertyOp39
 70
     1
102
RTVSPropertyOp40
 70
     1
102
RTVSPropertyOp41
 70
     1
102
RTVSPropertyOp42
 70
     1
102
RTVSPropertyOp43
 70
     1
102
RTVSPropertyOp44
 70
     1
102
RTVSPropertyOp45
 70
     1
102
RTVSPropertyOp46
 70
     1
102
RTVSPropertyOp47
 70
     1
102
RTVSPropertyOp48
 70
     1
102
RTVSPropertyOp49
 70
     1
102
RTVSPropertyOp50
 70
     1
102
RTVSPropertyOp51
 70
     0
102
RTVSPropertyOp52
 70
     0
102
RTVSPropertyOp53
 70
     1
102
RTVSPropertyOp54
 70
     1
102
RTVSPropertyOp55
 70
     1
102
RTVSPropertyOp56
 70
     1
102
RTVSPropertyOp57
 70
     1
102
RTVSPost2010Prop28
280
     0
102
RTVSPost2010PropOp28
 70
     1
102
RTVSPost2010Prop29
280
     1
102
RTVSPost2010PropOp29
 70
     1
102
RTVSPost2010Prop30
280
     1
102
RTVSPost2010PropOp30
 70
     1
102
RTVSPost2010Prop31
280
     0
102
RTVSPost2010PropOp31
 70
     1
102
RTVSPost2010Prop32
280
     0
102
RTVSPost2010PropOp32
 70
     1
102
RTVSPost2010Prop33
280
     0
102
RTVSPost2010PropOp33
 70
     1
102
RTVSPost2010Prop34
280
     0
102
RTVSPost2010PropOp34
 70
     1
102
RTVSPost2010Prop35
280
     0
102
RTVSPost2010PropOp35
 70
     1
102
RTVSPost2010Prop36
280
     0
102
RTVSPost2010PropOp36
 70
     1
102
RTVSPost2010Prop37
 90
       50
102
RTVSPost2010PropOp37
 70
     1
102
RTVSPost2010Prop38
140
0.0
102
RTVSPost2010PropOp38
 70
     1
102
RTVSPost2010Prop39
140
1.0
102
RTVSPost2010PropOp39
 70
     1
102
RTVSPost2010Prop40
 90
        0
102
RTVSPost2010PropOp40
 70
     1
102
RTVSPost2010Prop41ColorIndex
 90
       18
102
RTVSPost2010Prop41ColorRGB
 90
        0
102
RTVSPost2010PropOp41
 70
     1
102
RTVSPost2010Prop42
 90
       50
102
RTVSPost2010PropOp42
 70
     1
102
RTVSPost2010Prop43
 90
        3
102
RTVSPost2010PropOp43
 70
     1
102
RTVSPost2010Prop44ColorIndex
 90
        5
102
RTVSPost2010Prop44ColorRGB
 90
      255
102
RTVSPost2010PropOp44
 70
     1
102
RTVSPost2010Prop45
280
     0
102
RTVSPost2010PropOp45
 70
     1
102
RTVSPost2010Prop46
 90
       50
102
RTVSPost2010PropOp46
 70
     1
102
RTVSPost2010Prop47
 90
       50
102
RTVSPost2010PropOp47
 70
     1
102
RTVSPost2010Prop48
 90
       50
102
RTVSPost2010PropOp48
 70
     1
102
RTVSPost2010Prop49
280
     0
102
RTVSPost2010PropOp49
 70
     1
102
RTVSPost2010Prop50
 90
       50
102
RTVSPost2010PropOp50
 70
     1
102
RTVSPost2010Prop51ColorIndex
 90
      256
102
RTVSPost2010Prop51ColorRGB
 90
-16777216
102
RTVSPost2010PropOp51
 70
     0
102
RTVSPost2010Prop52
140
1.0
102
RTVSPost2010PropOp52
 70
     0
102
RTVSPost2010Prop53
 90
        2
102
RTVSPost2010PropOp53
 70
     1
102
RTVSPost2010Prop54
  1
strokes_ogs.tif
102
RTVSPost2010PropOp54
 70
     1
102
RTVSPost2010Prop55
280
     0
102
RTVSPost2010PropOp55
 70
     1
102
RTVSPost2010Prop56
140
1.0
102
RTVSPost2010PropOp56
 70
     1
102
RTVSPost2010Prop57
140
1.0
102
RTVSPost2010PropOp57
 70
     1
  0
XRECORD
  5
3A5
102
{ACAD_REACTORS
330
3A4
102
}
330
3A4
100
AcDbXrecord
280
     1
102
RTVSPropertyOp0
 70
     1
102
RTVSPropertyOp1
 70
     1
102
RTVSPropertyOp2
 70
     1
102
RTVSPropertyOp3
 70
     1
102
RTVSPropertyOp4
 70
     1
102
RTVSPropertyOp5
 70
     1
102
RTVSPropertyOp6
 70
     1
102
RTVSPropertyOp7
 70
     1
102
RTVSPropertyOp8
 70
     1
102
RTVSPropertyOp9
 70
     1
102
RTVSPropertyOp10
 70
     1
102
RTVSPropertyOp11
 70
     1
102
RTVSPropertyOp12
 70
     1
102
RTVSPropertyOp13
 70
     1
102
RTVSPropertyOp14
 70
     1
102
RTVSPropertyOp15
 70
     1
102
RTVSPropertyOp16
 70
     1
102
RTVSPropertyOp17
 70
     1
102
RTVSPropertyOp18
 70
     1
102
RTVSPropertyOp19
 70
     1
102
RTVSPropertyOp20
 70
     1
102
RTVSPropertyOp21
 70
     1
102
RTVSPropertyOp22
 70
     1
102
RTVSPropertyOp23
 70
     1
102
RTVSPropertyOp24
 70
     1
102
RTVSPropertyOp25
 70
     1
102
RTVSPropertyOp26
 70
     1
102
RTVSPropertyOp27
 70
     1
102
RTVSPropertyOp28
 70
     1
102
RTVSPropertyOp29
 70
     1
102
RTVSPropertyOp30
 70
     1
102
RTVSPropertyOp31
 70
     1
102
RTVSPropertyOp32
 70
     1
102
RTVSPropertyOp33
 70
     1
102
RTVSPropertyOp34
 70
     1
102
RTVSPropertyOp35
 70
     1
102
RTVSPropertyOp36
 70
     1
102
RTVSPropertyOp37
 70
     1
102
RTVSPropertyOp38
 70
     1
102
RTVSPropertyOp39
 70
     1
102
RTVSPropertyOp40
 70
     1
102
RTVSPropertyOp41
 70
     1
102
RTVSPropertyOp42
 70
     1
102
RTVSPropertyOp43
 70
     1
102
RTVSPropertyOp44
 70
     1
102
RTVSPropertyOp45
 70
     1
102
RTVSPropertyOp46
 70
     1
102
RTVSPropertyOp47
 70
     1
102
RTVSPropertyOp48
 70
     1
102
RTVSPropertyOp49
 70
     1
102
RTVSPropertyOp50
 70
     1
102
RTVSPropertyOp51
 70
     0
102
RTVSPropertyOp52
 70
     0
102
RTVSPropertyOp53
 70
     1
102
RTVSPropertyOp54
 70
     1
102
RTVSPropertyOp55
 70
     1
102
RTVSPropertyOp56
 70
     1
102
RTVSPropertyOp57
 70
     1
102
RTVSPost2010Prop28
280
     0
102
RTVSPost2010PropOp28
 70
     1
102
RTVSPost2010Prop29
280
     1
102
RTVSPost2010PropOp29
 70
     1
102
RTVSPost2010Prop30
280
     1
102
RTVSPost2010PropOp30
 70
     1
102
RTVSPost2010Prop31
280
     0
102
RTVSPost2010PropOp31
 70
     1
102
RTVSPost2010Prop32
280
     0
102
RTVSPost2010PropOp32
 70
     1
102
RTVSPost2010Prop33
280
     0
102
RTVSPost2010PropOp33
 70
     1
102
RTVSPost2010Prop34
280
     0
102
RTVSPost2010PropOp34
 70
     1
102
RTVSPost2010Prop35
280
     0
102
RTVSPost2010PropOp35
 70
     1
102
RTVSPost2010Prop36
280
     0
102
RTVSPost2010PropOp36
 70
     1
102
RTVSPost2010Prop37
 90
       50
102
RTVSPost2010PropOp37
 70
     1
102
RTVSPost2010Prop38
140
0.0
102
RTVSPost2010PropOp38
 70
     1
102
RTVSPost2010Prop39
140
1.0
102
RTVSPost2010PropOp39
 70
     1
102
RTVSPost2010Prop40
 90
        0
102
RTVSPost2010PropOp40
 70
     1
102
RTVSPost2010Prop41ColorIndex
 90
       18
102
RTVSPost2010Prop41ColorRGB
 90
        0
102
RTVSPost2010PropOp41
 70
     1
102
RTVSPost2010Prop42
 90
       50
102
RTVSPost2010PropOp42
 70
     1
102
RTVSPost2010Prop43
 90
        3
102
RTVSPost2010PropOp43
 70
     1
102
RTVSPost2010Prop44ColorIndex
 90
        5
102
RTVSPost2010Prop44ColorRGB
 90
      255
102
RTVSPost2010PropOp44
 70
     1
102
RTVSPost2010Prop45
280
     0
102
RTVSPost2010PropOp45
 70
     1
102
RTVSPost2010Prop46
 90
       50
102
RTVSPost2010PropOp46
 70
     1
102
RTVSPost2010Prop47
 90
       50
102
RTVSPost2010PropOp47
 70
     1
102
RTVSPost2010Prop48
 90
       50
102
RTVSPost2010PropOp48
 70
     1
102
RTVSPost2010Prop49
280
     0
102
RTVSPost2010PropOp49
 70
     1
102
RTVSPost2010Prop50
 90
       50
102
RTVSPost2010PropOp50
 70
     1
102
RTVSPost2010Prop51ColorIndex
 90
      256
102
RTVSPost2010Prop51ColorRGB
 90
-16777216
102
RTVSPost2010PropOp51
 70
     0
102
RTVSPost2010Prop52
140
1.0
102
RTVSPost2010PropOp52
 70
     0
102
RTVSPost2010Prop53
 90
        2
102
RTVSPost2010PropOp53
 70
     1
102
RTVSPost2010Prop54
  1
strokes_ogs.tif
102
RTVSPost2010PropOp54
 70
     1
102
RTVSPost2010Prop55
280
     0
102
RTVSPost2010PropOp55
 70
     1
102
RTVSPost2010Prop56
140
1.0
102
RTVSPost2010PropOp56
 70
     1
102
RTVSPost2010Prop57
140
1.0
102
RTVSPost2010PropOp57
 70
     1
  0
XRECORD
  5
399
102
{ACAD_REACTORS
330
398
102
}
330
398
100
AcDbXrecord
280
     1
102
RTVSPropertyOp0
 70
     1
102
RTVSPropertyOp1
 70
     1
102
RTVSPropertyOp2
 70
     1
102
RTVSPropertyOp3
 70
     1
102
RTVSPropertyOp4
 70
     1
102
RTVSPropertyOp5
 70
     1
102
RTVSPropertyOp6
 70
     1
102
RTVSPropertyOp7
 70
     1
102
RTVSPropertyOp8
 70
     1
102
RTVSPropertyOp9
 70
     1
102
RTVSPropertyOp10
 70
     1
102
RTVSPropertyOp11
 70
     1
102
RTVSPropertyOp12
 70
     1
102
RTVSPropertyOp13
 70
     1
102
RTVSPropertyOp14
 70
     1
102
RTVSPropertyOp15
 70
     1
102
RTVSPropertyOp16
 70
     1
102
RTVSPropertyOp17
 70
     1
102
RTVSPropertyOp18
 70
     1
102
RTVSPropertyOp19
 70
     1
102
RTVSPropertyOp20
 70
     1
102
RTVSPropertyOp21
 70
     1
102
RTVSPropertyOp22
 70
     1
102
RTVSPropertyOp23
 70
     1
102
RTVSPropertyOp24
 70
     1
102
RTVSPropertyOp25
 70
     1
102
RTVSPropertyOp26
 70
     1
102
RTVSPropertyOp27
 70
     1
102
RTVSPropertyOp28
 70
     1
102
RTVSPropertyOp29
 70
     1
102
RTVSPropertyOp30
 70
     1
102
RTVSPropertyOp31
 70
     1
102
RTVSPropertyOp32
 70
     1
102
RTVSPropertyOp33
 70
     1
102
RTVSPropertyOp34
 70
     1
102
RTVSPropertyOp35
 70
     1
102
RTVSPropertyOp36
 70
     1
102
RTVSPropertyOp37
 70
     1
102
RTVSPropertyOp38
 70
     1
102
RTVSPropertyOp39
 70
     1
102
RTVSPropertyOp40
 70
     1
102
RTVSPropertyOp41
 70
     1
102
RTVSPropertyOp42
 70
     1
102
RTVSPropertyOp43
 70
     1
102
RTVSPropertyOp44
 70
     1
102
RTVSPropertyOp45
 70
     1
102
RTVSPropertyOp46
 70
     1
102
RTVSPropertyOp47
 70
     1
102
RTVSPropertyOp48
 70
     1
102
RTVSPropertyOp49
 70
     1
102
RTVSPropertyOp50
 70
     1
102
RTVSPropertyOp51
 70
     0
102
RTVSPropertyOp52
 70
     0
102
RTVSPropertyOp53
 70
     1
102
RTVSPropertyOp54
 70
     1
102
RTVSPropertyOp55
 70
     1
102
RTVSPropertyOp56
 70
     1
102
RTVSPropertyOp57
 70
     1
102
RTVSPost2010Prop28
280
     0
102
RTVSPost2010PropOp28
 70
     1
102
RTVSPost2010Prop29
280
     1
102
RTVSPost2010PropOp29
 70
     1
102
RTVSPost2010Prop30
280
     1
102
RTVSPost2010PropOp30
 70
     1
102
RTVSPost2010Prop31
280
     0
102
RTVSPost2010PropOp31
 70
     1
102
RTVSPost2010Prop32
280
     0
102
RTVSPost2010PropOp32
 70
     1
102
RTVSPost2010Prop33
280
     0
102
RTVSPost2010PropOp33
 70
     1
102
RTVSPost2010Prop34
280
     0
102
RTVSPost2010PropOp34
 70
     1
102
RTVSPost2010Prop35
280
     0
102
RTVSPost2010PropOp35
 70
     1
102
RTVSPost2010Prop36
280
     0
102
RTVSPost2010PropOp36
 70
     1
102
RTVSPost2010Prop37
 90
       50
102
RTVSPost2010PropOp37
 70
     1
102
RTVSPost2010Prop38
140
0.0
102
RTVSPost2010PropOp38
 70
     1
102
RTVSPost2010Prop39
140
1.0
102
RTVSPost2010PropOp39
 70
     1
102
RTVSPost2010Prop40
 90
        0
102
RTVSPost2010PropOp40
 70
     1
102
RTVSPost2010Prop41ColorIndex
 90
       18
102
RTVSPost2010Prop41ColorRGB
 90
        0
102
RTVSPost2010PropOp41
 70
     1
102
RTVSPost2010Prop42
 90
       50
102
RTVSPost2010PropOp42
 70
     1
102
RTVSPost2010Prop43
 90
        3
102
RTVSPost2010PropOp43
 70
     1
102
RTVSPost2010Prop44ColorIndex
 90
        5
102
RTVSPost2010Prop44ColorRGB
 90
      255
102
RTVSPost2010PropOp44
 70
     1
102
RTVSPost2010Prop45
280
     0
102
RTVSPost2010PropOp45
 70
     1
102
RTVSPost2010Prop46
 90
       50
102
RTVSPost2010PropOp46
 70
     1
102
RTVSPost2010Prop47
 90
       50
102
RTVSPost2010PropOp47
 70
     1
102
RTVSPost2010Prop48
 90
       50
102
RTVSPost2010PropOp48
 70
     1
102
RTVSPost2010Prop49
280
     0
102
RTVSPost2010PropOp49
 70
     1
102
RTVSPost2010Prop50
 90
       50
102
RTVSPost2010PropOp50
 70
     1
102
RTVSPost2010Prop51ColorIndex
 90
      256
102
RTVSPost2010Prop51ColorRGB
 90
-16777216
102
RTVSPost2010PropOp51
 70
     0
102
RTVSPost2010Prop52
140
1.0
102
RTVSPost2010PropOp52
 70
     0
102
RTVSPost2010Prop53
 90
        2
102
RTVSPost2010PropOp53
 70
     1
102
RTVSPost2010Prop54
  1
strokes_ogs.tif
102
RTVSPost2010PropOp54
 70
     1
102
RTVSPost2010Prop55
280
     0
102
RTVSPost2010PropOp55
 70
     1
102
RTVSPost2010Prop56
140
1.0
102
RTVSPost2010PropOp56
 70
     1
102
RTVSPost2010Prop57
140
1.0
102
RTVSPost2010PropOp57
 70
     1
  0
XRECORD
  5
39B
102
{ACAD_REACTORS
330
39A
102
}
330
39A
100
AcDbXrecord
280
     1
102
RTVSPropertyOp0
 70
     1
102
RTVSPropertyOp1
 70
     1
102
RTVSPropertyOp2
 70
     1
102
RTVSPropertyOp3
 70
     1
102
RTVSPropertyOp4
 70
     1
102
RTVSPropertyOp5
 70
     1
102
RTVSPropertyOp6
 70
     1
102
RTVSPropertyOp7
 70
     1
102
RTVSPropertyOp8
 70
     1
102
RTVSPropertyOp9
 70
     1
102
RTVSPropertyOp10
 70
     1
102
RTVSPropertyOp11
 70
     1
102
RTVSPropertyOp12
 70
     1
102
RTVSPropertyOp13
 70
     1
102
RTVSPropertyOp14
 70
     1
102
RTVSPropertyOp15
 70
     1
102
RTVSPropertyOp16
 70
     1
102
RTVSPropertyOp17
 70
     1
102
RTVSPropertyOp18
 70
     1
102
RTVSPropertyOp19
 70
     1
102
RTVSPropertyOp20
 70
     1
102
RTVSPropertyOp21
 70
     1
102
RTVSPropertyOp22
 70
     1
102
RTVSPropertyOp23
 70
     1
102
RTVSPropertyOp24
 70
     1
102
RTVSPropertyOp25
 70
     1
102
RTVSPropertyOp26
 70
     1
102
RTVSPropertyOp27
 70
     1
102
RTVSPropertyOp28
 70
     1
102
RTVSPropertyOp29
 70
     1
102
RTVSPropertyOp30
 70
     1
102
RTVSPropertyOp31
 70
     1
102
RTVSPropertyOp32
 70
     1
102
RTVSPropertyOp33
 70
     1
102
RTVSPropertyOp34
 70
     1
102
RTVSPropertyOp35
 70
     1
102
RTVSPropertyOp36
 70
     1
102
RTVSPropertyOp37
 70
     1
102
RTVSPropertyOp38
 70
     1
102
RTVSPropertyOp39
 70
     1
102
RTVSPropertyOp40
 70
     1
102
RTVSPropertyOp41
 70
     1
102
RTVSPropertyOp42
 70
     1
102
RTVSPropertyOp43
 70
     1
102
RTVSPropertyOp44
 70
     1
102
RTVSPropertyOp45
 70
     1
102
RTVSPropertyOp46
 70
     1
102
RTVSPropertyOp47
 70
     1
102
RTVSPropertyOp48
 70
     1
102
RTVSPropertyOp49
 70
     1
102
RTVSPropertyOp50
 70
     1
102
RTVSPropertyOp51
 70
     0
102
RTVSPropertyOp52
 70
     0
102
RTVSPropertyOp53
 70
     1
102
RTVSPropertyOp54
 70
     1
102
RTVSPropertyOp55
 70
     1
102
RTVSPropertyOp56
 70
     1
102
RTVSPropertyOp57
 70
     1
102
RTVSPost2010Prop28
280
     0
102
RTVSPost2010PropOp28
 70
     1
102
RTVSPost2010Prop29
280
     1
102
RTVSPost2010PropOp29
 70
     1
102
RTVSPost2010Prop30
280
     1
102
RTVSPost2010PropOp30
 70
     1
102
RTVSPost2010Prop31
280
     0
102
RTVSPost2010PropOp31
 70
     1
102
RTVSPost2010Prop32
280
     0
102
RTVSPost2010PropOp32
 70
     1
102
RTVSPost2010Prop33
280
     0
102
RTVSPost2010PropOp33
 70
     1
102
RTVSPost2010Prop34
280
     0
102
RTVSPost2010PropOp34
 70
     1
102
RTVSPost2010Prop35
280
     0
102
RTVSPost2010PropOp35
 70
     1
102
RTVSPost2010Prop36
280
     0
102
RTVSPost2010PropOp36
 70
     1
102
RTVSPost2010Prop37
 90
       50
102
RTVSPost2010PropOp37
 70
     1
102
RTVSPost2010Prop38
140
0.0
102
RTVSPost2010PropOp38
 70
     1
102
RTVSPost2010Prop39
140
1.0
102
RTVSPost2010PropOp39
 70
     1
102
RTVSPost2010Prop40
 90
        0
102
RTVSPost2010PropOp40
 70
     1
102
RTVSPost2010Prop41ColorIndex
 90
       18
102
RTVSPost2010Prop41ColorRGB
 90
        0
102
RTVSPost2010PropOp41
 70
     1
102
RTVSPost2010Prop42
 90
       50
102
RTVSPost2010PropOp42
 70
     1
102
RTVSPost2010Prop43
 90
        3
102
RTVSPost2010PropOp43
 70
     1
102
RTVSPost2010Prop44ColorIndex
 90
        5
102
RTVSPost2010Prop44ColorRGB
 90
      255
102
RTVSPost2010PropOp44
 70
     1
102
RTVSPost2010Prop45
280
     0
102
RTVSPost2010PropOp45
 70
     1
102
RTVSPost2010Prop46
 90
       50
102
RTVSPost2010PropOp46
 70
     1
102
RTVSPost2010Prop47
 90
       50
102
RTVSPost2010PropOp47
 70
     1
102
RTVSPost2010Prop48
 90
       50
102
RTVSPost2010PropOp48
 70
     1
102
RTVSPost2010Prop49
280
     0
102
RTVSPost2010PropOp49
 70
     1
102
RTVSPost2010Prop50
 90
       50
102
RTVSPost2010PropOp50
 70
     1
102
RTVSPost2010Prop51ColorIndex
 90
      256
102
RTVSPost2010Prop51ColorRGB
 90
-16777216
102
RTVSPost2010PropOp51
 70
     0
102
RTVSPost2010Prop52
140
1.0
102
RTVSPost2010PropOp52
 70
     0
102
RTVSPost2010Prop53
 90
        2
102
RTVSPost2010PropOp53
 70
     1
102
RTVSPost2010Prop54
  1
strokes_ogs.tif
102
RTVSPost2010PropOp54
 70
     1
102
RTVSPost2010Prop55
280
     0
102
RTVSPost2010PropOp55
 70
     1
102
RTVSPost2010Prop56
140
1.0
102
RTVSPost2010PropOp56
 70
     1
102
RTVSPost2010Prop57
140
1.0
102
RTVSPost2010PropOp57
 70
     1
  0
XRECORD
  5
3AB
102
{ACAD_REACTORS
330
3AA
102
}
330
3AA
100
AcDbXrecord
280
     1
102
RTVSPropertyOp0
 70
     0
102
RTVSPropertyOp1
 70
     0
102
RTVSPropertyOp2
 70
     0
102
RTVSPropertyOp3
 70
     0
102
RTVSPropertyOp4
 70
     0
102
RTVSPropertyOp5
 70
     0
102
RTVSPropertyOp6
 70
     0
102
RTVSPropertyOp7
 70
     0
102
RTVSPropertyOp8
 70
     0
102
RTVSPropertyOp9
 70
     0
102
RTVSPropertyOp10
 70
     0
102
RTVSPropertyOp11
 70
     0
102
RTVSPropertyOp12
 70
     0
102
RTVSPropertyOp13
 70
     0
102
RTVSPropertyOp14
 70
     2
102
RTVSPropertyOp15
 70
     0
102
RTVSPropertyOp16
 70
     0
102
RTVSPropertyOp17
 70
     0
102
RTVSPropertyOp18
 70
     0
102
RTVSPropertyOp19
 70
     0
102
RTVSPropertyOp20
 70
     0
102
RTVSPropertyOp21
 70
     0
102
RTVSPropertyOp22
 70
     0
102
RTVSPropertyOp23
 70
     0
102
RTVSPropertyOp24
 70
     0
102
RTVSPropertyOp25
 70
     0
102
RTVSPropertyOp26
 70
     0
102
RTVSPropertyOp27
 70
     0
102
RTVSPropertyOp28
 70
     0
102
RTVSPropertyOp29
 70
     0
102
RTVSPropertyOp30
 70
     0
102
RTVSPropertyOp31
 70
     0
102
RTVSPropertyOp32
 70
     0
102
RTVSPropertyOp33
 70
     0
102
RTVSPropertyOp34
 70
     0
102
RTVSPropertyOp35
 70
     0
102
RTVSPropertyOp36
 70
     0
102
RTVSPropertyOp37
 70
     0
102
RTVSPropertyOp38
 70
     0
102
RTVSPropertyOp39
 70
     0
102
RTVSPropertyOp40
 70
     0
102
RTVSPropertyOp41
 70
     0
102
RTVSPropertyOp42
 70
     0
102
RTVSPropertyOp43
 70
     0
102
RTVSPropertyOp44
 70
     0
102
RTVSPropertyOp45
 70
     0
102
RTVSPropertyOp46
 70
     0
102
RTVSPropertyOp47
 70
     0
102
RTVSPropertyOp48
 70
     0
102
RTVSPropertyOp49
 70
     0
102
RTVSPropertyOp50
 70
     0
102
RTVSPropertyOp51
 70
     0
102
RTVSPropertyOp52
 70
     0
102
RTVSPropertyOp53
 70
     0
102
RTVSPropertyOp54
 70
     0
102
RTVSPropertyOp55
 70
     0
102
RTVSPropertyOp56
 70
     0
102
RTVSPropertyOp57
 70
     0
102
RTVSPost2010Prop28
280
     0
102
RTVSPost2010PropOp28
 70
     0
102
RTVSPost2010Prop29
280
     1
102
RTVSPost2010PropOp29
 70
     0
102
RTVSPost2010Prop30
280
     1
102
RTVSPost2010PropOp30
 70
     0
102
RTVSPost2010Prop31
280
     0
102
RTVSPost2010PropOp31
 70
     0
102
RTVSPost2010Prop32
280
     0
102
RTVSPost2010PropOp32
 70
     0
102
RTVSPost2010Prop33
280
     0
102
RTVSPost2010PropOp33
 70
     0
102
RTVSPost2010Prop34
280
     0
102
RTVSPost2010PropOp34
 70
     0
102
RTVSPost2010Prop35
280
     0
102
RTVSPost2010PropOp35
 70
     0
102
RTVSPost2010Prop36
280
     0
102
RTVSPost2010PropOp36
 70
     0
102
RTVSPost2010Prop37
 90
       50
102
RTVSPost2010PropOp37
 70
     0
102
RTVSPost2010Prop38
140
0.0
102
RTVSPost2010PropOp38
 70
     0
102
RTVSPost2010Prop39
140
1.0
102
RTVSPost2010PropOp39
 70
     0
102
RTVSPost2010Prop40
 90
        0
102
RTVSPost2010PropOp40
 70
     0
102
RTVSPost2010Prop41ColorIndex
 90
       18
102
RTVSPost2010Prop41ColorRGB
 90
        0
102
RTVSPost2010PropOp41
 70
     0
102
RTVSPost2010Prop42
 90
       50
102
RTVSPost2010PropOp42
 70
     0
102
RTVSPost2010Prop43
 90
        3
102
RTVSPost2010PropOp43
 70
     0
102
RTVSPost2010Prop44ColorIndex
 90
        5
102
RTVSPost2010Prop44ColorRGB
 90
      255
102
RTVSPost2010PropOp44
 70
     0
102
RTVSPost2010Prop45
280
     0
102
RTVSPost2010PropOp45
 70
     0
102
RTVSPost2010Prop46
 90
       50
102
RTVSPost2010PropOp46
 70
     0
102
RTVSPost2010Prop47
 90
       50
102
RTVSPost2010PropOp47
 70
     0
102
RTVSPost2010Prop48
 90
       50
102
RTVSPost2010PropOp48
 70
     0
102
RTVSPost2010Prop49
280
     0
102
RTVSPost2010PropOp49
 70
     0
102
RTVSPost2010Prop50
 90
       50
102
RTVSPost2010PropOp50
 70
     0
102
RTVSPost2010Prop51ColorIndex
 90
      256
102
RTVSPost2010Prop51ColorRGB
 90
-16777216
102
RTVSPost2010PropOp51
 70
     0
102
RTVSPost2010Prop52
140
1.0
102
RTVSPost2010PropOp52
 70
     0
102
RTVSPost2010Prop53
 90
        2
102
RTVSPost2010PropOp53
 70
     0
102
RTVSPost2010Prop54
  1
strokes_ogs.tif
102
RTVSPost2010PropOp54
 70
     0
102
RTVSPost2010Prop55
280
     0
102
RTVSPost2010PropOp55
 70
     0
102
RTVSPost2010Prop56
140
1.0
102
RTVSPost2010PropOp56
 70
     0
102
RTVSPost2010Prop57
140
1.0
102
RTVSPost2010PropOp57
 70
     0
  0
XRECORD
  5
3A3
102
{ACAD_REACTORS
330
3A2
102
}
330
3A2
100
AcDbXrecord
280
     1
102
RTVSPropertyOp0
 70
     1
102
RTVSPropertyOp1
 70
     1
102
RTVSPropertyOp2
 70
     1
102
RTVSPropertyOp3
 70
     1
102
RTVSPropertyOp4
 70
     1
102
RTVSPropertyOp5
 70
     1
102
RTVSPropertyOp6
 70
     1
102
RTVSPropertyOp7
 70
     1
102
RTVSPropertyOp8
 70
     1
102
RTVSPropertyOp9
 70
     1
102
RTVSPropertyOp10
 70
     1
102
RTVSPropertyOp11
 70
     1
102
RTVSPropertyOp12
 70
     1
102
RTVSPropertyOp13
 70
     1
102
RTVSPropertyOp14
 70
     1
102
RTVSPropertyOp15
 70
     1
102
RTVSPropertyOp16
 70
     1
102
RTVSPropertyOp17
 70
     1
102
RTVSPropertyOp18
 70
     1
102
RTVSPropertyOp19
 70
     1
102
RTVSPropertyOp20
 70
     1
102
RTVSPropertyOp21
 70
     1
102
RTVSPropertyOp22
 70
     1
102
RTVSPropertyOp23
 70
     1
102
RTVSPropertyOp24
 70
     1
102
RTVSPropertyOp25
 70
     1
102
RTVSPropertyOp26
 70
     1
102
RTVSPropertyOp27
 70
     1
102
RTVSPropertyOp28
 70
     1
102
RTVSPropertyOp29
 70
     1
102
RTVSPropertyOp30
 70
     1
102
RTVSPropertyOp31
 70
     1
102
RTVSPropertyOp32
 70
     1
102
RTVSPropertyOp33
 70
     1
102
RTVSPropertyOp34
 70
     1
102
RTVSPropertyOp35
 70
     1
102
RTVSPropertyOp36
 70
     1
102
RTVSPropertyOp37
 70
     1
102
RTVSPropertyOp38
 70
     1
102
RTVSPropertyOp39
 70
     1
102
RTVSPropertyOp40
 70
     1
102
RTVSPropertyOp41
 70
     1
102
RTVSPropertyOp42
 70
     1
102
RTVSPropertyOp43
 70
     1
102
RTVSPropertyOp44
 70
     1
102
RTVSPropertyOp45
 70
     1
102
RTVSPropertyOp46
 70
     1
102
RTVSPropertyOp47
 70
     1
102
RTVSPropertyOp48
 70
     1
102
RTVSPropertyOp49
 70
     1
102
RTVSPropertyOp50
 70
     1
102
RTVSPropertyOp51
 70
     0
102
RTVSPropertyOp52
 70
     0
102
RTVSPropertyOp53
 70
     1
102
RTVSPropertyOp54
 70
     1
102
RTVSPropertyOp55
 70
     1
102
RTVSPropertyOp56
 70
     1
102
RTVSPropertyOp57
 70
     1
102
RTVSPost2010Prop28
280
     0
102
RTVSPost2010PropOp28
 70
     1
102
RTVSPost2010Prop29
280
     1
102
RTVSPost2010PropOp29
 70
     1
102
RTVSPost2010Prop30
280
     1
102
RTVSPost2010PropOp30
 70
     1
102
RTVSPost2010Prop31
280
     0
102
RTVSPost2010PropOp31
 70
     1
102
RTVSPost2010Prop32
280
     0
102
RTVSPost2010PropOp32
 70
     1
102
RTVSPost2010Prop33
280
     0
102
RTVSPost2010PropOp33
 70
     1
102
RTVSPost2010Prop34
280
     0
102
RTVSPost2010PropOp34
 70
     1
102
RTVSPost2010Prop35
280
     0
102
RTVSPost2010PropOp35
 70
     1
102
RTVSPost2010Prop36
280
     0
102
RTVSPost2010PropOp36
 70
     1
102
RTVSPost2010Prop37
 90
       50
102
RTVSPost2010PropOp37
 70
     1
102
RTVSPost2010Prop38
140
0.0
102
RTVSPost2010PropOp38
 70
     1
102
RTVSPost2010Prop39
140
1.0
102
RTVSPost2010PropOp39
 70
     1
102
RTVSPost2010Prop40
 90
        0
102
RTVSPost2010PropOp40
 70
     1
102
RTVSPost2010Prop41ColorIndex
 90
       18
102
RTVSPost2010Prop41ColorRGB
 90
        0
102
RTVSPost2010PropOp41
 70
     1
102
RTVSPost2010Prop42
 90
       50
102
RTVSPost2010PropOp42
 70
     1
102
RTVSPost2010Prop43
 90
        3
102
RTVSPost2010PropOp43
 70
     1
102
RTVSPost2010Prop44ColorIndex
 90
        5
102
RTVSPost2010Prop44ColorRGB
 90
      255
102
RTVSPost2010PropOp44
 70
     1
102
RTVSPost2010Prop45
280
     0
102
RTVSPost2010PropOp45
 70
     1
102
RTVSPost2010Prop46
 90
       50
102
RTVSPost2010PropOp46
 70
     1
102
RTVSPost2010Prop47
 90
       50
102
RTVSPost2010PropOp47
 70
     1
102
RTVSPost2010Prop48
 90
       50
102
RTVSPost2010PropOp48
 70
     1
102
RTVSPost2010Prop49
280
     0
102
RTVSPost2010PropOp49
 70
     1
102
RTVSPost2010Prop50
 90
       50
102
RTVSPost2010PropOp50
 70
     1
102
RTVSPost2010Prop51ColorIndex
 90
      256
102
RTVSPost2010Prop51ColorRGB
 90
-16777216
102
RTVSPost2010PropOp51
 70
     0
102
RTVSPost2010Prop52
140
1.0
102
RTVSPost2010PropOp52
 70
     0
102
RTVSPost2010Prop53
 90
        2
102
RTVSPost2010PropOp53
 70
     1
102
RTVSPost2010Prop54
  1
strokes_ogs.tif
102
RTVSPost2010PropOp54
 70
     1
102
RTVSPost2010Prop55
280
     0
102
RTVSPost2010PropOp55
 70
     1
102
RTVSPost2010Prop56
140
1.0
102
RTVSPost2010PropOp56
 70
     1
102
RTVSPost2010Prop57
140
1.0
102
RTVSPost2010PropOp57
 70
     1
  0
XRECORD
  5
387
102
{ACAD_REACTORS
330
386
102
}
330
386
100
AcDbXrecord
280
     1
102
RTVSPropertyOp0
 70
     1
102
RTVSPropertyOp1
 70
     1
102
RTVSPropertyOp2
 70
     1
102
RTVSPropertyOp3
 70
     1
102
RTVSPropertyOp4
 70
     1
102
RTVSPropertyOp5
 70
     1
102
RTVSPropertyOp6
 70
     1
102
RTVSPropertyOp7
 70
     1
102
RTVSPropertyOp8
 70
     1
102
RTVSPropertyOp9
 70
     1
102
RTVSPropertyOp10
 70
     1
102
RTVSPropertyOp11
 70
     1
102
RTVSPropertyOp12
 70
     1
102
RTVSPropertyOp13
 70
     1
102
RTVSPropertyOp14
 70
     1
102
RTVSPropertyOp15
 70
     1
102
RTVSPropertyOp16
 70
     1
102
RTVSPropertyOp17
 70
     1
102
RTVSPropertyOp18
 70
     1
102
RTVSPropertyOp19
 70
     1
102
RTVSPropertyOp20
 70
     1
102
RTVSPropertyOp21
 70
     1
102
RTVSPropertyOp22
 70
     1
102
RTVSPropertyOp23
 70
     1
102
RTVSPropertyOp24
 70
     1
102
RTVSPropertyOp25
 70
     1
102
RTVSPropertyOp26
 70
     1
102
RTVSPropertyOp27
 70
     1
102
RTVSPropertyOp28
 70
     1
102
RTVSPropertyOp29
 70
     1
102
RTVSPropertyOp30
 70
     1
102
RTVSPropertyOp31
 70
     1
102
RTVSPropertyOp32
 70
     1
102
RTVSPropertyOp33
 70
     1
102
RTVSPropertyOp34
 70
     1
102
RTVSPropertyOp35
 70
     1
102
RTVSPropertyOp36
 70
     1
102
RTVSPropertyOp37
 70
     1
102
RTVSPropertyOp38
 70
     1
102
RTVSPropertyOp39
 70
     1
102
RTVSPropertyOp40
 70
     1
102
RTVSPropertyOp41
 70
     1
102
RTVSPropertyOp42
 70
     1
102
RTVSPropertyOp43
 70
     1
102
RTVSPropertyOp44
 70
     1
102
RTVSPropertyOp45
 70
     1
102
RTVSPropertyOp46
 70
     1
102
RTVSPropertyOp47
 70
     1
102
RTVSPropertyOp48
 70
     1
102
RTVSPropertyOp49
 70
     1
102
RTVSPropertyOp50
 70
     1
102
RTVSPropertyOp51
 70
     0
102
RTVSPropertyOp52
 70
     0
102
RTVSPropertyOp53
 70
     1
102
RTVSPropertyOp54
 70
     1
102
RTVSPropertyOp55
 70
     1
102
RTVSPropertyOp56
 70
     1
102
RTVSPropertyOp57
 70
     1
102
RTVSPost2010Prop28
280
     0
102
RTVSPost2010PropOp28
 70
     1
102
RTVSPost2010Prop29
280
     1
102
RTVSPost2010PropOp29
 70
     1
102
RTVSPost2010Prop30
280
     1
102
RTVSPost2010PropOp30
 70
     1
102
RTVSPost2010Prop31
280
     0
102
RTVSPost2010PropOp31
 70
     1
102
RTVSPost2010Prop32
280
     0
102
RTVSPost2010PropOp32
 70
     1
102
RTVSPost2010Prop33
280
     0
102
RTVSPost2010PropOp33
 70
     1
102
RTVSPost2010Prop34
280
     0
102
RTVSPost2010PropOp34
 70
     1
102
RTVSPost2010Prop35
280
     0
102
RTVSPost2010PropOp35
 70
     1
102
RTVSPost2010Prop36
280
     0
102
RTVSPost2010PropOp36
 70
     1
102
RTVSPost2010Prop37
 90
       50
102
RTVSPost2010PropOp37
 70
     1
102
RTVSPost2010Prop38
140
0.0
102
RTVSPost2010PropOp38
 70
     1
102
RTVSPost2010Prop39
140
1.0
102
RTVSPost2010PropOp39
 70
     1
102
RTVSPost2010Prop40
 90
        0
102
RTVSPost2010PropOp40
 70
     1
102
RTVSPost2010Prop41ColorIndex
 90
       18
102
RTVSPost2010Prop41ColorRGB
 90
        0
102
RTVSPost2010PropOp41
 70
     1
102
RTVSPost2010Prop42
 90
       50
102
RTVSPost2010PropOp42
 70
     1
102
RTVSPost2010Prop43
 90
        3
102
RTVSPost2010PropOp43
 70
     1
102
RTVSPost2010Prop44ColorIndex
 90
        5
102
RTVSPost2010Prop44ColorRGB
 90
      255
102
RTVSPost2010PropOp44
 70
     1
102
RTVSPost2010Prop45
280
     0
102
RTVSPost2010PropOp45
 70
     1
102
RTVSPost2010Prop46
 90
       50
102
RTVSPost2010PropOp46
 70
     1
102
RTVSPost2010Prop47
 90
       50
102
RTVSPost2010PropOp47
 70
     1
102
RTVSPost2010Prop48
 90
       50
102
RTVSPost2010PropOp48
 70
     1
102
RTVSPost2010Prop49
280
     0
102
RTVSPost2010PropOp49
 70
     1
102
RTVSPost2010Prop50
 90
       50
102
RTVSPost2010PropOp50
 70
     1
102
RTVSPost2010Prop51ColorIndex
 90
      256
102
RTVSPost2010Prop51ColorRGB
 90
-16777216
102
RTVSPost2010PropOp51
 70
     0
102
RTVSPost2010Prop52
140
1.0
102
RTVSPost2010PropOp52
 70
     0
102
RTVSPost2010Prop53
 90
        2
102
RTVSPost2010PropOp53
 70
     1
102
RTVSPost2010Prop54
  1
strokes_ogs.tif
102
RTVSPost2010PropOp54
 70
     1
102
RTVSPost2010Prop55
280
     0
102
RTVSPost2010PropOp55
 70
     1
102
RTVSPost2010Prop56
140
1.0
102
RTVSPost2010PropOp56
 70
     1
102
RTVSPost2010Prop57
140
1.0
102
RTVSPost2010PropOp57
 70
     1
  0
XRECORD
  5
389
102
{ACAD_REACTORS
330
388
102
}
330
388
100
AcDbXrecord
280
     1
102
RTVSPropertyOp0
 70
     1
102
RTVSPropertyOp1
 70
     1
102
RTVSPropertyOp2
 70
     1
102
RTVSPropertyOp3
 70
     1
102
RTVSPropertyOp4
 70
     1
102
RTVSPropertyOp5
 70
     1
102
RTVSPropertyOp6
 70
     1
102
RTVSPropertyOp7
 70
     1
102
RTVSPropertyOp8
 70
     1
102
RTVSPropertyOp9
 70
     1
102
RTVSPropertyOp10
 70
     1
102
RTVSPropertyOp11
 70
     1
102
RTVSPropertyOp12
 70
     1
102
RTVSPropertyOp13
 70
     1
102
RTVSPropertyOp14
 70
     1
102
RTVSPropertyOp15
 70
     1
102
RTVSPropertyOp16
 70
     1
102
RTVSPropertyOp17
 70
     1
102
RTVSPropertyOp18
 70
     1
102
RTVSPropertyOp19
 70
     1
102
RTVSPropertyOp20
 70
     1
102
RTVSPropertyOp21
 70
     1
102
RTVSPropertyOp22
 70
     1
102
RTVSPropertyOp23
 70
     1
102
RTVSPropertyOp24
 70
     1
102
RTVSPropertyOp25
 70
     1
102
RTVSPropertyOp26
 70
     1
102
RTVSPropertyOp27
 70
     1
102
RTVSPropertyOp28
 70
     1
102
RTVSPropertyOp29
 70
     1
102
RTVSPropertyOp30
 70
     1
102
RTVSPropertyOp31
 70
     1
102
RTVSPropertyOp32
 70
     1
102
RTVSPropertyOp33
 70
     1
102
RTVSPropertyOp34
 70
     1
102
RTVSPropertyOp35
 70
     1
102
RTVSPropertyOp36
 70
     1
102
RTVSPropertyOp37
 70
     1
102
RTVSPropertyOp38
 70
     1
102
RTVSPropertyOp39
 70
     1
102
RTVSPropertyOp40
 70
     1
102
RTVSPropertyOp41
 70
     1
102
RTVSPropertyOp42
 70
     1
102
RTVSPropertyOp43
 70
     1
102
RTVSPropertyOp44
 70
     1
102
RTVSPropertyOp45
 70
     1
102
RTVSPropertyOp46
 70
     1
102
RTVSPropertyOp47
 70
     1
102
RTVSPropertyOp48
 70
     1
102
RTVSPropertyOp49
 70
     1
102
RTVSPropertyOp50
 70
     1
102
RTVSPropertyOp51
 70
     0
102
RTVSPropertyOp52
 70
     0
102
RTVSPropertyOp53
 70
     1
102
RTVSPropertyOp54
 70
     1
102
RTVSPropertyOp55
 70
     1
102
RTVSPropertyOp56
 70
     1
102
RTVSPropertyOp57
 70
     1
102
RTVSPost2010Prop28
280
     0
102
RTVSPost2010PropOp28
 70
     1
102
RTVSPost2010Prop29
280
     1
102
RTVSPost2010PropOp29
 70
     1
102
RTVSPost2010Prop30
280
     1
102
RTVSPost2010PropOp30
 70
     1
102
RTVSPost2010Prop31
280
     0
102
RTVSPost2010PropOp31
 70
     1
102
RTVSPost2010Prop32
280
     0
102
RTVSPost2010PropOp32
 70
     1
102
RTVSPost2010Prop33
280
     0
102
RTVSPost2010PropOp33
 70
     1
102
RTVSPost2010Prop34
280
     0
102
RTVSPost2010PropOp34
 70
     1
102
RTVSPost2010Prop35
280
     0
102
RTVSPost2010PropOp35
 70
     1
102
RTVSPost2010Prop36
280
     0
102
RTVSPost2010PropOp36
 70
     1
102
RTVSPost2010Prop37
 90
       50
102
RTVSPost2010PropOp37
 70
     1
102
RTVSPost2010Prop38
140
0.0
102
RTVSPost2010PropOp38
 70
     1
102
RTVSPost2010Prop39
140
1.0
102
RTVSPost2010PropOp39
 70
     1
102
RTVSPost2010Prop40
 90
        0
102
RTVSPost2010PropOp40
 70
     1
102
RTVSPost2010Prop41ColorIndex
 90
       18
102
RTVSPost2010Prop41ColorRGB
 90
        0
102
RTVSPost2010PropOp41
 70
     1
102
RTVSPost2010Prop42
 90
       50
102
RTVSPost2010PropOp42
 70
     1
102
RTVSPost2010Prop43
 90
        3
102
RTVSPost2010PropOp43
 70
     1
102
RTVSPost2010Prop44ColorIndex
 90
        5
102
RTVSPost2010Prop44ColorRGB
 90
      255
102
RTVSPost2010PropOp44
 70
     1
102
RTVSPost2010Prop45
280
     0
102
RTVSPost2010PropOp45
 70
     1
102
RTVSPost2010Prop46
 90
       50
102
RTVSPost2010PropOp46
 70
     1
102
RTVSPost2010Prop47
 90
       50
102
RTVSPost2010PropOp47
 70
     1
102
RTVSPost2010Prop48
 90
       50
102
RTVSPost2010PropOp48
 70
     1
102
RTVSPost2010Prop49
280
     0
102
RTVSPost2010PropOp49
 70
     1
102
RTVSPost2010Prop50
 90
       50
102
RTVSPost2010PropOp50
 70
     1
102
RTVSPost2010Prop51ColorIndex
 90
      256
102
RTVSPost2010Prop51ColorRGB
 90
-16777216
102
RTVSPost2010PropOp51
 70
     0
102
RTVSPost2010Prop52
140
1.0
102
RTVSPost2010PropOp52
 70
     0
102
RTVSPost2010Prop53
 90
        2
102
RTVSPost2010PropOp53
 70
     1
102
RTVSPost2010Prop54
  1
strokes_ogs.tif
102
RTVSPost2010PropOp54
 70
     1
102
RTVSPost2010Prop55
280
     0
102
RTVSPost2010PropOp55
 70
     1
102
RTVSPost2010Prop56
140
1.0
102
RTVSPost2010PropOp56
 70
     1
102
RTVSPost2010Prop57
140
1.0
102
RTVSPost2010PropOp57
 70
     1
  0
XRECORD
  5
38B
102
{ACAD_REACTORS
330
38A
102
}
330
38A
100
AcDbXrecord
280
     1
102
RTVSPropertyOp0
 70
     1
102
RTVSPropertyOp1
 70
     1
102
RTVSPropertyOp2
 70
     1
102
RTVSPropertyOp3
 70
     1
102
RTVSPropertyOp4
 70
     1
102
RTVSPropertyOp5
 70
     1
102
RTVSPropertyOp6
 70
     1
102
RTVSPropertyOp7
 70
     1
102
RTVSPropertyOp8
 70
     1
102
RTVSPropertyOp9
 70
     1
102
RTVSPropertyOp10
 70
     1
102
RTVSPropertyOp11
 70
     1
102
RTVSPropertyOp12
 70
     1
102
RTVSPropertyOp13
 70
     1
102
RTVSPropertyOp14
 70
     1
102
RTVSPropertyOp15
 70
     1
102
RTVSPropertyOp16
 70
     1
102
RTVSPropertyOp17
 70
     1
102
RTVSPropertyOp18
 70
     1
102
RTVSPropertyOp19
 70
     1
102
RTVSPropertyOp20
 70
     1
102
RTVSPropertyOp21
 70
     1
102
RTVSPropertyOp22
 70
     1
102
RTVSPropertyOp23
 70
     1
102
RTVSPropertyOp24
 70
     1
102
RTVSPropertyOp25
 70
     1
102
RTVSPropertyOp26
 70
     1
102
RTVSPropertyOp27
 70
     1
102
RTVSPropertyOp28
 70
     1
102
RTVSPropertyOp29
 70
     1
102
RTVSPropertyOp30
 70
     1
102
RTVSPropertyOp31
 70
     1
102
RTVSPropertyOp32
 70
     1
102
RTVSPropertyOp33
 70
     1
102
RTVSPropertyOp34
 70
     1
102
RTVSPropertyOp35
 70
     1
102
RTVSPropertyOp36
 70
     1
102
RTVSPropertyOp37
 70
     1
102
RTVSPropertyOp38
 70
     1
102
RTVSPropertyOp39
 70
     1
102
RTVSPropertyOp40
 70
     1
102
RTVSPropertyOp41
 70
     1
102
RTVSPropertyOp42
 70
     1
102
RTVSPropertyOp43
 70
     1
102
RTVSPropertyOp44
 70
     1
102
RTVSPropertyOp45
 70
     1
102
RTVSPropertyOp46
 70
     1
102
RTVSPropertyOp47
 70
     1
102
RTVSPropertyOp48
 70
     1
102
RTVSPropertyOp49
 70
     1
102
RTVSPropertyOp50
 70
     1
102
RTVSPropertyOp51
 70
     0
102
RTVSPropertyOp52
 70
     0
102
RTVSPropertyOp53
 70
     1
102
RTVSPropertyOp54
 70
     1
102
RTVSPropertyOp55
 70
     1
102
RTVSPropertyOp56
 70
     1
102
RTVSPropertyOp57
 70
     1
102
RTVSPost2010Prop28
280
     0
102
RTVSPost2010PropOp28
 70
     1
102
RTVSPost2010Prop29
280
     1
102
RTVSPost2010PropOp29
 70
     1
102
RTVSPost2010Prop30
280
     1
102
RTVSPost2010PropOp30
 70
     1
102
RTVSPost2010Prop31
280
     0
102
RTVSPost2010PropOp31
 70
     1
102
RTVSPost2010Prop32
280
     0
102
RTVSPost2010PropOp32
 70
     1
102
RTVSPost2010Prop33
280
     0
102
RTVSPost2010PropOp33
 70
     1
102
RTVSPost2010Prop34
280
     0
102
RTVSPost2010PropOp34
 70
     1
102
RTVSPost2010Prop35
280
     0
102
RTVSPost2010PropOp35
 70
     1
102
RTVSPost2010Prop36
280
     0
102
RTVSPost2010PropOp36
 70
     1
102
RTVSPost2010Prop37
 90
       50
102
RTVSPost2010PropOp37
 70
     1
102
RTVSPost2010Prop38
140
0.0
102
RTVSPost2010PropOp38
 70
     1
102
RTVSPost2010Prop39
140
1.0
102
RTVSPost2010PropOp39
 70
     1
102
RTVSPost2010Prop40
 90
        0
102
RTVSPost2010PropOp40
 70
     1
102
RTVSPost2010Prop41ColorIndex
 90
       18
102
RTVSPost2010Prop41ColorRGB
 90
        0
102
RTVSPost2010PropOp41
 70
     1
102
RTVSPost2010Prop42
 90
       50
102
RTVSPost2010PropOp42
 70
     1
102
RTVSPost2010Prop43
 90
        3
102
RTVSPost2010PropOp43
 70
     1
102
RTVSPost2010Prop44ColorIndex
 90
        5
102
RTVSPost2010Prop44ColorRGB
 90
      255
102
RTVSPost2010PropOp44
 70
     1
102
RTVSPost2010Prop45
280
     0
102
RTVSPost2010PropOp45
 70
     1
102
RTVSPost2010Prop46
 90
       50
102
RTVSPost2010PropOp46
 70
     1
102
RTVSPost2010Prop47
 90
       50
102
RTVSPost2010PropOp47
 70
     1
102
RTVSPost2010Prop48
 90
       50
102
RTVSPost2010PropOp48
 70
     1
102
RTVSPost2010Prop49
280
     0
102
RTVSPost2010PropOp49
 70
     1
102
RTVSPost2010Prop50
 90
       50
102
RTVSPost2010PropOp50
 70
     1
102
RTVSPost2010Prop51ColorIndex
 90
      256
102
RTVSPost2010Prop51ColorRGB
 90
-16777216
102
RTVSPost2010PropOp51
 70
     0
102
RTVSPost2010Prop52
140
1.0
102
RTVSPost2010PropOp52
 70
     0
102
RTVSPost2010Prop53
 90
        2
102
RTVSPost2010PropOp53
 70
     1
102
RTVSPost2010Prop54
  1
strokes_ogs.tif
102
RTVSPost2010PropOp54
 70
     1
102
RTVSPost2010Prop55
280
     0
102
RTVSPost2010PropOp55
 70
     1
102
RTVSPost2010Prop56
140
1.0
102
RTVSPost2010PropOp56
 70
     1
102
RTVSPost2010Prop57
140
1.0
102
RTVSPost2010PropOp57
 70
     1
  0
XRECORD
  5
38D
102
{ACAD_REACTORS
330
38C
102
}
330
38C
100
AcDbXrecord
280
     1
102
RTVSPropertyOp0
 70
     1
102
RTVSPropertyOp1
 70
     1
102
RTVSPropertyOp2
 70
     1
102
RTVSPropertyOp3
 70
     1
102
RTVSPropertyOp4
 70
     1
102
RTVSPropertyOp5
 70
     1
102
RTVSPropertyOp6
 70
     1
102
RTVSPropertyOp7
 70
     1
102
RTVSPropertyOp8
 70
     1
102
RTVSPropertyOp9
 70
     1
102
RTVSPropertyOp10
 70
     1
102
RTVSPropertyOp11
 70
     1
102
RTVSPropertyOp12
 70
     1
102
RTVSPropertyOp13
 70
     1
102
RTVSPropertyOp14
 70
     1
102
RTVSPropertyOp15
 70
     1
102
RTVSPropertyOp16
 70
     1
102
RTVSPropertyOp17
 70
     1
102
RTVSPropertyOp18
 70
     1
102
RTVSPropertyOp19
 70
     1
102
RTVSPropertyOp20
 70
     1
102
RTVSPropertyOp21
 70
     1
102
RTVSPropertyOp22
 70
     1
102
RTVSPropertyOp23
 70
     1
102
RTVSPropertyOp24
 70
     1
102
RTVSPropertyOp25
 70
     1
102
RTVSPropertyOp26
 70
     1
102
RTVSPropertyOp27
 70
     1
102
RTVSPropertyOp28
 70
     1
102
RTVSPropertyOp29
 70
     1
102
RTVSPropertyOp30
 70
     1
102
RTVSPropertyOp31
 70
     1
102
RTVSPropertyOp32
 70
     1
102
RTVSPropertyOp33
 70
     1
102
RTVSPropertyOp34
 70
     1
102
RTVSPropertyOp35
 70
     1
102
RTVSPropertyOp36
 70
     1
102
RTVSPropertyOp37
 70
     1
102
RTVSPropertyOp38
 70
     1
102
RTVSPropertyOp39
 70
     1
102
RTVSPropertyOp40
 70
     1
102
RTVSPropertyOp41
 70
     1
102
RTVSPropertyOp42
 70
     1
102
RTVSPropertyOp43
 70
     1
102
RTVSPropertyOp44
 70
     1
102
RTVSPropertyOp45
 70
     1
102
RTVSPropertyOp46
 70
     1
102
RTVSPropertyOp47
 70
     1
102
RTVSPropertyOp48
 70
     1
102
RTVSPropertyOp49
 70
     1
102
RTVSPropertyOp50
 70
     1
102
RTVSPropertyOp51
 70
     0
102
RTVSPropertyOp52
 70
     0
102
RTVSPropertyOp53
 70
     1
102
RTVSPropertyOp54
 70
     1
102
RTVSPropertyOp55
 70
     1
102
RTVSPropertyOp56
 70
     1
102
RTVSPropertyOp57
 70
     1
102
RTVSPost2010Prop28
280
     0
102
RTVSPost2010PropOp28
 70
     1
102
RTVSPost2010Prop29
280
     1
102
RTVSPost2010PropOp29
 70
     1
102
RTVSPost2010Prop30
280
     1
102
RTVSPost2010PropOp30
 70
     1
102
RTVSPost2010Prop31
280
     0
102
RTVSPost2010PropOp31
 70
     1
102
RTVSPost2010Prop32
280
     0
102
RTVSPost2010PropOp32
 70
     1
102
RTVSPost2010Prop33
280
     0
102
RTVSPost2010PropOp33
 70
     1
102
RTVSPost2010Prop34
280
     0
102
RTVSPost2010PropOp34
 70
     1
102
RTVSPost2010Prop35
280
     0
102
RTVSPost2010PropOp35
 70
     1
102
RTVSPost2010Prop36
280
     0
102
RTVSPost2010PropOp36
 70
     1
102
RTVSPost2010Prop37
 90
       50
102
RTVSPost2010PropOp37
 70
     1
102
RTVSPost2010Prop38
140
0.0
102
RTVSPost2010PropOp38
 70
     1
102
RTVSPost2010Prop39
140
1.0
102
RTVSPost2010PropOp39
 70
     1
102
RTVSPost2010Prop40
 90
        0
102
RTVSPost2010PropOp40
 70
     1
102
RTVSPost2010Prop41ColorIndex
 90
       18
102
RTVSPost2010Prop41ColorRGB
 90
        0
102
RTVSPost2010PropOp41
 70
     1
102
RTVSPost2010Prop42
 90
       50
102
RTVSPost2010PropOp42
 70
     1
102
RTVSPost2010Prop43
 90
        3
102
RTVSPost2010PropOp43
 70
     1
102
RTVSPost2010Prop44ColorIndex
 90
        5
102
RTVSPost2010Prop44ColorRGB
 90
      255
102
RTVSPost2010PropOp44
 70
     1
102
RTVSPost2010Prop45
280
     0
102
RTVSPost2010PropOp45
 70
     1
102
RTVSPost2010Prop46
 90
       50
102
RTVSPost2010PropOp46
 70
     1
102
RTVSPost2010Prop47
 90
       50
102
RTVSPost2010PropOp47
 70
     1
102
RTVSPost2010Prop48
 90
       50
102
RTVSPost2010PropOp48
 70
     1
102
RTVSPost2010Prop49
280
     0
102
RTVSPost2010PropOp49
 70
     1
102
RTVSPost2010Prop50
 90
       50
102
RTVSPost2010PropOp50
 70
     1
102
RTVSPost2010Prop51ColorIndex
 90
      256
102
RTVSPost2010Prop51ColorRGB
 90
-16777216
102
RTVSPost2010PropOp51
 70
     0
102
RTVSPost2010Prop52
140
1.0
102
RTVSPost2010PropOp52
 70
     0
102
RTVSPost2010Prop53
 90
        2
102
RTVSPost2010PropOp53
 70
     1
102
RTVSPost2010Prop54
  1
strokes_ogs.tif
102
RTVSPost2010PropOp54
 70
     1
102
RTVSPost2010Prop55
280
     0
102
RTVSPost2010PropOp55
 70
     1
102
RTVSPost2010Prop56
140
1.0
102
RTVSPost2010PropOp56
 70
     1
102
RTVSPost2010Prop57
140
1.0
102
RTVSPost2010PropOp57
 70
     1
  0
XRECORD
  5
393
102
{ACAD_REACTORS
330
392
102
}
330
392
100
AcDbXrecord
280
     1
102
RTVSPropertyOp0
 70
     1
102
RTVSPropertyOp1
 70
     1
102
RTVSPropertyOp2
 70
     1
102
RTVSPropertyOp3
 70
     1
102
RTVSPropertyOp4
 70
     1
102
RTVSPropertyOp5
 70
     1
102
RTVSPropertyOp6
 70
     1
102
RTVSPropertyOp7
 70
     1
102
RTVSPropertyOp8
 70
     1
102
RTVSPropertyOp9
 70
     1
102
RTVSPropertyOp10
 70
     1
102
RTVSPropertyOp11
 70
     1
102
RTVSPropertyOp12
 70
     1
102
RTVSPropertyOp13
 70
     1
102
RTVSPropertyOp14
 70
     1
102
RTVSPropertyOp15
 70
     1
102
RTVSPropertyOp16
 70
     1
102
RTVSPropertyOp17
 70
     1
102
RTVSPropertyOp18
 70
     1
102
RTVSPropertyOp19
 70
     1
102
RTVSPropertyOp20
 70
     1
102
RTVSPropertyOp21
 70
     1
102
RTVSPropertyOp22
 70
     1
102
RTVSPropertyOp23
 70
     1
102
RTVSPropertyOp24
 70
     1
102
RTVSPropertyOp25
 70
     1
102
RTVSPropertyOp26
 70
     1
102
RTVSPropertyOp27
 70
     1
102
RTVSPropertyOp28
 70
     1
102
RTVSPropertyOp29
 70
     1
102
RTVSPropertyOp30
 70
     1
102
RTVSPropertyOp31
 70
     1
102
RTVSPropertyOp32
 70
     1
102
RTVSPropertyOp33
 70
     1
102
RTVSPropertyOp34
 70
     1
102
RTVSPropertyOp35
 70
     1
102
RTVSPropertyOp36
 70
     1
102
RTVSPropertyOp37
 70
     1
102
RTVSPropertyOp38
 70
     1
102
RTVSPropertyOp39
 70
     1
102
RTVSPropertyOp40
 70
     1
102
RTVSPropertyOp41
 70
     1
102
RTVSPropertyOp42
 70
     1
102
RTVSPropertyOp43
 70
     1
102
RTVSPropertyOp44
 70
     1
102
RTVSPropertyOp45
 70
     1
102
RTVSPropertyOp46
 70
     1
102
RTVSPropertyOp47
 70
     1
102
RTVSPropertyOp48
 70
     1
102
RTVSPropertyOp49
 70
     1
102
RTVSPropertyOp50
 70
     1
102
RTVSPropertyOp51
 70
     0
102
RTVSPropertyOp52
 70
     0
102
RTVSPropertyOp53
 70
     1
102
RTVSPropertyOp54
 70
     1
102
RTVSPropertyOp55
 70
     1
102
RTVSPropertyOp56
 70
     1
102
RTVSPropertyOp57
 70
     1
102
RTVSPost2010Prop28
280
     0
102
RTVSPost2010PropOp28
 70
     1
102
RTVSPost2010Prop29
280
     1
102
RTVSPost2010PropOp29
 70
     1
102
RTVSPost2010Prop30
280
     1
102
RTVSPost2010PropOp30
 70
     1
102
RTVSPost2010Prop31
280
     0
102
RTVSPost2010PropOp31
 70
     1
102
RTVSPost2010Prop32
280
     0
102
RTVSPost2010PropOp32
 70
     1
102
RTVSPost2010Prop33
280
     0
102
RTVSPost2010PropOp33
 70
     1
102
RTVSPost2010Prop34
280
     0
102
RTVSPost2010PropOp34
 70
     1
102
RTVSPost2010Prop35
280
     0
102
RTVSPost2010PropOp35
 70
     1
102
RTVSPost2010Prop36
280
     0
102
RTVSPost2010PropOp36
 70
     1
102
RTVSPost2010Prop37
 90
       50
102
RTVSPost2010PropOp37
 70
     1
102
RTVSPost2010Prop38
140
0.0
102
RTVSPost2010PropOp38
 70
     1
102
RTVSPost2010Prop39
140
1.0
102
RTVSPost2010PropOp39
 70
     1
102
RTVSPost2010Prop40
 90
        0
102
RTVSPost2010PropOp40
 70
     1
102
RTVSPost2010Prop41ColorIndex
 90
       18
102
RTVSPost2010Prop41ColorRGB
 90
        0
102
RTVSPost2010PropOp41
 70
     1
102
RTVSPost2010Prop42
 90
       50
102
RTVSPost2010PropOp42
 70
     1
102
RTVSPost2010Prop43
 90
        3
102
RTVSPost2010PropOp43
 70
     1
102
RTVSPost2010Prop44ColorIndex
 90
        5
102
RTVSPost2010Prop44ColorRGB
 90
      255
102
RTVSPost2010PropOp44
 70
     1
102
RTVSPost2010Prop45
280
     0
102
RTVSPost2010PropOp45
 70
     1
102
RTVSPost2010Prop46
 90
       50
102
RTVSPost2010PropOp46
 70
     1
102
RTVSPost2010Prop47
 90
       50
102
RTVSPost2010PropOp47
 70
     1
102
RTVSPost2010Prop48
 90
       50
102
RTVSPost2010PropOp48
 70
     1
102
RTVSPost2010Prop49
280
     0
102
RTVSPost2010PropOp49
 70
     1
102
RTVSPost2010Prop50
 90
       50
102
RTVSPost2010PropOp50
 70
     1
102
RTVSPost2010Prop51ColorIndex
 90
      256
102
RTVSPost2010Prop51ColorRGB
 90
-16777216
102
RTVSPost2010PropOp51
 70
     0
102
RTVSPost2010Prop52
140
1.0
102
RTVSPost2010PropOp52
 70
     0
102
RTVSPost2010Prop53
 90
        2
102
RTVSPost2010PropOp53
 70
     1
102
RTVSPost2010Prop54
  1
strokes_ogs.tif
102
RTVSPost2010PropOp54
 70
     1
102
RTVSPost2010Prop55
280
     0
102
RTVSPost2010PropOp55
 70
     1
102
RTVSPost2010Prop56
140
1.0
102
RTVSPost2010PropOp56
 70
     1
102
RTVSPost2010Prop57
140
1.0
102
RTVSPost2010PropOp57
 70
     1
  0
XRECORD
  5
3A7
102
{ACAD_REACTORS
330
3A6
102
}
330
3A6
100
AcDbXrecord
280
     1
102
RTVSPropertyOp0
 70
     0
102
RTVSPropertyOp1
 70
     0
102
RTVSPropertyOp2
 70
     0
102
RTVSPropertyOp3
 70
     0
102
RTVSPropertyOp4
 70
     0
102
RTVSPropertyOp5
 70
     0
102
RTVSPropertyOp6
 70
     0
102
RTVSPropertyOp7
 70
     0
102
RTVSPropertyOp8
 70
     0
102
RTVSPropertyOp9
 70
     0
102
RTVSPropertyOp10
 70
     0
102
RTVSPropertyOp11
 70
     0
102
RTVSPropertyOp12
 70
     0
102
RTVSPropertyOp13
 70
     0
102
RTVSPropertyOp14
 70
     2
102
RTVSPropertyOp15
 70
     0
102
RTVSPropertyOp16
 70
     0
102
RTVSPropertyOp17
 70
     0
102
RTVSPropertyOp18
 70
     0
102
RTVSPropertyOp19
 70
     0
102
RTVSPropertyOp20
 70
     0
102
RTVSPropertyOp21
 70
     0
102
RTVSPropertyOp22
 70
     0
102
RTVSPropertyOp23
 70
     0
102
RTVSPropertyOp24
 70
     0
102
RTVSPropertyOp25
 70
     0
102
RTVSPropertyOp26
 70
     0
102
RTVSPropertyOp27
 70
     0
102
RTVSPropertyOp28
 70
     0
102
RTVSPropertyOp29
 70
     0
102
RTVSPropertyOp30
 70
     0
102
RTVSPropertyOp31
 70
     0
102
RTVSPropertyOp32
 70
     0
102
RTVSPropertyOp33
 70
     0
102
RTVSPropertyOp34
 70
     0
102
RTVSPropertyOp35
 70
     0
102
RTVSPropertyOp36
 70
     0
102
RTVSPropertyOp37
 70
     0
102
RTVSPropertyOp38
 70
     0
102
RTVSPropertyOp39
 70
     0
102
RTVSPropertyOp40
 70
     0
102
RTVSPropertyOp41
 70
     0
102
RTVSPropertyOp42
 70
     0
102
RTVSPropertyOp43
 70
     0
102
RTVSPropertyOp44
 70
     0
102
RTVSPropertyOp45
 70
     0
102
RTVSPropertyOp46
 70
     0
102
RTVSPropertyOp47
 70
     0
102
RTVSPropertyOp48
 70
     0
102
RTVSPropertyOp49
 70
     0
102
RTVSPropertyOp50
 70
     0
102
RTVSPropertyOp51
 70
     0
102
RTVSPropertyOp52
 70
     0
102
RTVSPropertyOp53
 70
     0
102
RTVSPropertyOp54
 70
     0
102
RTVSPropertyOp55
 70
     0
102
RTVSPropertyOp56
 70
     0
102
RTVSPropertyOp57
 70
     0
102
RTVSPost2010Prop28
280
     0
102
RTVSPost2010PropOp28
 70
     0
102
RTVSPost2010Prop29
280
     1
102
RTVSPost2010PropOp29
 70
     0
102
RTVSPost2010Prop30
280
     1
102
RTVSPost2010PropOp30
 70
     0
102
RTVSPost2010Prop31
280
     0
102
RTVSPost2010PropOp31
 70
     0
102
RTVSPost2010Prop32
280
     0
102
RTVSPost2010PropOp32
 70
     0
102
RTVSPost2010Prop33
280
     0
102
RTVSPost2010PropOp33
 70
     0
102
RTVSPost2010Prop34
280
     0
102
RTVSPost2010PropOp34
 70
     0
102
RTVSPost2010Prop35
280
     0
102
RTVSPost2010PropOp35
 70
     0
102
RTVSPost2010Prop36
280
     0
102
RTVSPost2010PropOp36
 70
     0
102
RTVSPost2010Prop37
 90
       50
102
RTVSPost2010PropOp37
 70
     0
102
RTVSPost2010Prop38
140
0.0
102
RTVSPost2010PropOp38
 70
     0
102
RTVSPost2010Prop39
140
1.0
102
RTVSPost2010PropOp39
 70
     0
102
RTVSPost2010Prop40
 90
        0
102
RTVSPost2010PropOp40
 70
     0
102
RTVSPost2010Prop41ColorIndex
 90
       18
102
RTVSPost2010Prop41ColorRGB
 90
        0
102
RTVSPost2010PropOp41
 70
     0
102
RTVSPost2010Prop42
 90
       50
102
RTVSPost2010PropOp42
 70
     0
102
RTVSPost2010Prop43
 90
        3
102
RTVSPost2010PropOp43
 70
     0
102
RTVSPost2010Prop44ColorIndex
 90
        5
102
RTVSPost2010Prop44ColorRGB
 90
      255
102
RTVSPost2010PropOp44
 70
     0
102
RTVSPost2010Prop45
280
     0
102
RTVSPost2010PropOp45
 70
     0
102
RTVSPost2010Prop46
 90
       50
102
RTVSPost2010PropOp46
 70
     0
102
RTVSPost2010Prop47
 90
       50
102
RTVSPost2010PropOp47
 70
     0
102
RTVSPost2010Prop48
 90
       50
102
RTVSPost2010PropOp48
 70
     0
102
RTVSPost2010Prop49
280
     0
102
RTVSPost2010PropOp49
 70
     0
102
RTVSPost2010Prop50
 90
       50
102
RTVSPost2010PropOp50
 70
     0
102
RTVSPost2010Prop51ColorIndex
 90
      256
102
RTVSPost2010Prop51ColorRGB
 90
-16777216
102
RTVSPost2010PropOp51
 70
     0
102
RTVSPost2010Prop52
140
1.0
102
RTVSPost2010PropOp52
 70
     0
102
RTVSPost2010Prop53
 90
        2
102
RTVSPost2010PropOp53
 70
     0
102
RTVSPost2010Prop54
  1
strokes_ogs.tif
102
RTVSPost2010PropOp54
 70
     0
102
RTVSPost2010Prop55
280
     0
102
RTVSPost2010PropOp55
 70
     0
102
RTVSPost2010Prop56
140
1.0
102
RTVSPost2010PropOp56
 70
     0
102
RTVSPost2010Prop57
140
1.0
102
RTVSPost2010PropOp57
 70
     0
  0
XRECORD
  5
3A1
102
{ACAD_REACTORS
330
3A0
102
}
330
3A0
100
AcDbXrecord
280
     1
102
RTVSPropertyOp0
 70
     1
102
RTVSPropertyOp1
 70
     1
102
RTVSPropertyOp2
 70
     1
102
RTVSPropertyOp3
 70
     1
102
RTVSPropertyOp4
 70
     1
102
RTVSPropertyOp5
 70
     1
102
RTVSPropertyOp6
 70
     1
102
RTVSPropertyOp7
 70
     1
102
RTVSPropertyOp8
 70
     1
102
RTVSPropertyOp9
 70
     1
102
RTVSPropertyOp10
 70
     1
102
RTVSPropertyOp11
 70
     1
102
RTVSPropertyOp12
 70
     1
102
RTVSPropertyOp13
 70
     1
102
RTVSPropertyOp14
 70
     1
102
RTVSPropertyOp15
 70
     1
102
RTVSPropertyOp16
 70
     1
102
RTVSPropertyOp17
 70
     1
102
RTVSPropertyOp18
 70
     1
102
RTVSPropertyOp19
 70
     1
102
RTVSPropertyOp20
 70
     1
102
RTVSPropertyOp21
 70
     1
102
RTVSPropertyOp22
 70
     1
102
RTVSPropertyOp23
 70
     1
102
RTVSPropertyOp24
 70
     1
102
RTVSPropertyOp25
 70
     1
102
RTVSPropertyOp26
 70
     1
102
RTVSPropertyOp27
 70
     1
102
RTVSPropertyOp28
 70
     1
102
RTVSPropertyOp29
 70
     1
102
RTVSPropertyOp30
 70
     1
102
RTVSPropertyOp31
 70
     1
102
RTVSPropertyOp32
 70
     1
102
RTVSPropertyOp33
 70
     1
102
RTVSPropertyOp34
 70
     1
102
RTVSPropertyOp35
 70
     1
102
RTVSPropertyOp36
 70
     1
102
RTVSPropertyOp37
 70
     1
102
RTVSPropertyOp38
 70
     1
102
RTVSPropertyOp39
 70
     1
102
RTVSPropertyOp40
 70
     1
102
RTVSPropertyOp41
 70
     1
102
RTVSPropertyOp42
 70
     1
102
RTVSPropertyOp43
 70
     1
102
RTVSPropertyOp44
 70
     1
102
RTVSPropertyOp45
 70
     1
102
RTVSPropertyOp46
 70
     1
102
RTVSPropertyOp47
 70
     1
102
RTVSPropertyOp48
 70
     1
102
RTVSPropertyOp49
 70
     1
102
RTVSPropertyOp50
 70
     1
102
RTVSPropertyOp51
 70
     0
102
RTVSPropertyOp52
 70
     0
102
RTVSPropertyOp53
 70
     1
102
RTVSPropertyOp54
 70
     1
102
RTVSPropertyOp55
 70
     1
102
RTVSPropertyOp56
 70
     1
102
RTVSPropertyOp57
 70
     1
102
RTVSPost2010Prop28
280
     0
102
RTVSPost2010PropOp28
 70
     1
102
RTVSPost2010Prop29
280
     1
102
RTVSPost2010PropOp29
 70
     1
102
RTVSPost2010Prop30
280
     1
102
RTVSPost2010PropOp30
 70
     1
102
RTVSPost2010Prop31
280
     0
102
RTVSPost2010PropOp31
 70
     1
102
RTVSPost2010Prop32
280
     0
102
RTVSPost2010PropOp32
 70
     1
102
RTVSPost2010Prop33
280
     0
102
RTVSPost2010PropOp33
 70
     1
102
RTVSPost2010Prop34
280
     0
102
RTVSPost2010PropOp34
 70
     1
102
RTVSPost2010Prop35
280
     0
102
RTVSPost2010PropOp35
 70
     1
102
RTVSPost2010Prop36
280
     0
102
RTVSPost2010PropOp36
 70
     1
102
RTVSPost2010Prop37
 90
       50
102
RTVSPost2010PropOp37
 70
     1
102
RTVSPost2010Prop38
140
0.0
102
RTVSPost2010PropOp38
 70
     1
102
RTVSPost2010Prop39
140
1.0
102
RTVSPost2010PropOp39
 70
     1
102
RTVSPost2010Prop40
 90
        0
102
RTVSPost2010PropOp40
 70
     1
102
RTVSPost2010Prop41ColorIndex
 90
       18
102
RTVSPost2010Prop41ColorRGB
 90
        0
102
RTVSPost2010PropOp41
 70
     1
102
RTVSPost2010Prop42
 90
       50
102
RTVSPost2010PropOp42
 70
     1
102
RTVSPost2010Prop43
 90
        3
102
RTVSPost2010PropOp43
 70
     1
102
RTVSPost2010Prop44ColorIndex
 90
        5
102
RTVSPost2010Prop44ColorRGB
 90
      255
102
RTVSPost2010PropOp44
 70
     1
102
RTVSPost2010Prop45
280
     0
102
RTVSPost2010PropOp45
 70
     1
102
RTVSPost2010Prop46
 90
       50
102
RTVSPost2010PropOp46
 70
     1
102
RTVSPost2010Prop47
 90
       50
102
RTVSPost2010PropOp47
 70
     1
102
RTVSPost2010Prop48
 90
       50
102
RTVSPost2010PropOp48
 70
     1
102
RTVSPost2010Prop49
280
     0
102
RTVSPost2010PropOp49
 70
     1
102
RTVSPost2010Prop50
 90
       50
102
RTVSPost2010PropOp50
 70
     1
102
RTVSPost2010Prop51ColorIndex
 90
      256
102
RTVSPost2010Prop51ColorRGB
 90
-16777216
102
RTVSPost2010PropOp51
 70
     0
102
RTVSPost2010Prop52
140
1.0
102
RTVSPost2010PropOp52
 70
     0
102
RTVSPost2010Prop53
 90
        2
102
RTVSPost2010PropOp53
 70
     1
102
RTVSPost2010Prop54
  1
strokes_ogs.tif
102
RTVSPost2010PropOp54
 70
     1
102
RTVSPost2010Prop55
280
     0
102
RTVSPost2010PropOp55
 70
     1
102
RTVSPost2010Prop56
140
1.0
102
RTVSPost2010PropOp56
 70
     1
102
RTVSPost2010Prop57
140
1.0
102
RTVSPost2010PropOp57
 70
     1
  0
XRECORD
  5
3A9
102
{ACAD_REACTORS
330
3A8
102
}
330
3A8
100
AcDbXrecord
280
     1
102
RTVSPropertyOp0
 70
     0
102
RTVSPropertyOp1
 70
     0
102
RTVSPropertyOp2
 70
     0
102
RTVSPropertyOp3
 70
     0
102
RTVSPropertyOp4
 70
     0
102
RTVSPropertyOp5
 70
     0
102
RTVSPropertyOp6
 70
     0
102
RTVSPropertyOp7
 70
     0
102
RTVSPropertyOp8
 70
     0
102
RTVSPropertyOp9
 70
     0
102
RTVSPropertyOp10
 70
     0
102
RTVSPropertyOp11
 70
     0
102
RTVSPropertyOp12
 70
     0
102
RTVSPropertyOp13
 70
     0
102
RTVSPropertyOp14
 70
     2
102
RTVSPropertyOp15
 70
     0
102
RTVSPropertyOp16
 70
     0
102
RTVSPropertyOp17
 70
     0
102
RTVSPropertyOp18
 70
     0
102
RTVSPropertyOp19
 70
     0
102
RTVSPropertyOp20
 70
     0
102
RTVSPropertyOp21
 70
     0
102
RTVSPropertyOp22
 70
     0
102
RTVSPropertyOp23
 70
     0
102
RTVSPropertyOp24
 70
     0
102
RTVSPropertyOp25
 70
     0
102
RTVSPropertyOp26
 70
     0
102
RTVSPropertyOp27
 70
     0
102
RTVSPropertyOp28
 70
     0
102
RTVSPropertyOp29
 70
     0
102
RTVSPropertyOp30
 70
     0
102
RTVSPropertyOp31
 70
     0
102
RTVSPropertyOp32
 70
     0
102
RTVSPropertyOp33
 70
     0
102
RTVSPropertyOp34
 70
     0
102
RTVSPropertyOp35
 70
     0
102
RTVSPropertyOp36
 70
     0
102
RTVSPropertyOp37
 70
     0
102
RTVSPropertyOp38
 70
     0
102
RTVSPropertyOp39
 70
     0
102
RTVSPropertyOp40
 70
     0
102
RTVSPropertyOp41
 70
     0
102
RTVSPropertyOp42
 70
     0
102
RTVSPropertyOp43
 70
     0
102
RTVSPropertyOp44
 70
     0
102
RTVSPropertyOp45
 70
     0
102
RTVSPropertyOp46
 70
     0
102
RTVSPropertyOp47
 70
     0
102
RTVSPropertyOp48
 70
     0
102
RTVSPropertyOp49
 70
     0
102
RTVSPropertyOp50
 70
     0
102
RTVSPropertyOp51
 70
     0
102
RTVSPropertyOp52
 70
     0
102
RTVSPropertyOp53
 70
     0
102
RTVSPropertyOp54
 70
     0
102
RTVSPropertyOp55
 70
     0
102
RTVSPropertyOp56
 70
     0
102
RTVSPropertyOp57
 70
     0
102
RTVSPost2010Prop28
280
     0
102
RTVSPost2010PropOp28
 70
     0
102
RTVSPost2010Prop29
280
     1
102
RTVSPost2010PropOp29
 70
     0
102
RTVSPost2010Prop30
280
     1
102
RTVSPost2010PropOp30
 70
     0
102
RTVSPost2010Prop31
280
     0
102
RTVSPost2010PropOp31
 70
     0
102
RTVSPost2010Prop32
280
     0
102
RTVSPost2010PropOp32
 70
     0
102
RTVSPost2010Prop33
280
     0
102
RTVSPost2010PropOp33
 70
     0
102
RTVSPost2010Prop34
280
     0
102
RTVSPost2010PropOp34
 70
     0
102
RTVSPost2010Prop35
280
     0
102
RTVSPost2010PropOp35
 70
     0
102
RTVSPost2010Prop36
280
     0
102
RTVSPost2010PropOp36
 70
     0
102
RTVSPost2010Prop37
 90
       50
102
RTVSPost2010PropOp37
 70
     0
102
RTVSPost2010Prop38
140
0.0
102
RTVSPost2010PropOp38
 70
     0
102
RTVSPost2010Prop39
140
1.0
102
RTVSPost2010PropOp39
 70
     0
102
RTVSPost2010Prop40
 90
        0
102
RTVSPost2010PropOp40
 70
     0
102
RTVSPost2010Prop41ColorIndex
 90
       18
102
RTVSPost2010Prop41ColorRGB
 90
        0
102
RTVSPost2010PropOp41
 70
     0
102
RTVSPost2010Prop42
 90
       50
102
RTVSPost2010PropOp42
 70
     0
102
RTVSPost2010Prop43
 90
        3
102
RTVSPost2010PropOp43
 70
     0
102
RTVSPost2010Prop44ColorIndex
 90
        5
102
RTVSPost2010Prop44ColorRGB
 90
      255
102
RTVSPost2010PropOp44
 70
     0
102
RTVSPost2010Prop45
280
     0
102
RTVSPost2010PropOp45
 70
     0
102
RTVSPost2010Prop46
 90
       50
102
RTVSPost2010PropOp46
 70
     0
102
RTVSPost2010Prop47
 90
       50
102
RTVSPost2010PropOp47
 70
     0
102
RTVSPost2010Prop48
 90
       50
102
RTVSPost2010PropOp48
 70
     0
102
RTVSPost2010Prop49
280
     0
102
RTVSPost2010PropOp49
 70
     0
102
RTVSPost2010Prop50
 90
       50
102
RTVSPost2010PropOp50
 70
     0
102
RTVSPost2010Prop51ColorIndex
 90
      256
102
RTVSPost2010Prop51ColorRGB
 90
-16777216
102
RTVSPost2010PropOp51
 70
     0
102
RTVSPost2010Prop52
140
1.0
102
RTVSPost2010PropOp52
 70
     0
102
RTVSPost2010Prop53
 90
        2
102
RTVSPost2010PropOp53
 70
     0
102
RTVSPost2010Prop54
  1
strokes_ogs.tif
102
RTVSPost2010PropOp54
 70
     0
102
RTVSPost2010Prop55
280
     0
102
RTVSPost2010PropOp55
 70
     0
102
RTVSPost2010Prop56
140
1.0
102
RTVSPost2010PropOp56
 70
     0
102
RTVSPost2010Prop57
140
1.0
102
RTVSPost2010PropOp57
 70
     0
  0
XRECORD
  5
397
102
{ACAD_REACTORS
330
396
102
}
330
396
100
AcDbXrecord
280
     1
102
RTVSPropertyOp0
 70
     1
102
RTVSPropertyOp1
 70
     1
102
RTVSPropertyOp2
 70
     1
102
RTVSPropertyOp3
 70
     1
102
RTVSPropertyOp4
 70
     1
102
RTVSPropertyOp5
 70
     1
102
RTVSPropertyOp6
 70
     1
102
RTVSPropertyOp7
 70
     1
102
RTVSPropertyOp8
 70
     1
102
RTVSPropertyOp9
 70
     1
102
RTVSPropertyOp10
 70
     1
102
RTVSPropertyOp11
 70
     1
102
RTVSPropertyOp12
 70
     1
102
RTVSPropertyOp13
 70
     1
102
RTVSPropertyOp14
 70
     1
102
RTVSPropertyOp15
 70
     1
102
RTVSPropertyOp16
 70
     1
102
RTVSPropertyOp17
 70
     1
102
RTVSPropertyOp18
 70
     1
102
RTVSPropertyOp19
 70
     1
102
RTVSPropertyOp20
 70
     1
102
RTVSPropertyOp21
 70
     1
102
RTVSPropertyOp22
 70
     1
102
RTVSPropertyOp23
 70
     1
102
RTVSPropertyOp24
 70
     1
102
RTVSPropertyOp25
 70
     1
102
RTVSPropertyOp26
 70
     1
102
RTVSPropertyOp27
 70
     1
102
RTVSPropertyOp28
 70
     1
102
RTVSPropertyOp29
 70
     1
102
RTVSPropertyOp30
 70
     1
102
RTVSPropertyOp31
 70
     1
102
RTVSPropertyOp32
 70
     1
102
RTVSPropertyOp33
 70
     1
102
RTVSPropertyOp34
 70
     1
102
RTVSPropertyOp35
 70
     1
102
RTVSPropertyOp36
 70
     1
102
RTVSPropertyOp37
 70
     1
102
RTVSPropertyOp38
 70
     1
102
RTVSPropertyOp39
 70
     1
102
RTVSPropertyOp40
 70
     1
102
RTVSPropertyOp41
 70
     1
102
RTVSPropertyOp42
 70
     1
102
RTVSPropertyOp43
 70
     1
102
RTVSPropertyOp44
 70
     1
102
RTVSPropertyOp45
 70
     1
102
RTVSPropertyOp46
 70
     1
102
RTVSPropertyOp47
 70
     1
102
RTVSPropertyOp48
 70
     1
102
RTVSPropertyOp49
 70
     1
102
RTVSPropertyOp50
 70
     1
102
RTVSPropertyOp51
 70
     0
102
RTVSPropertyOp52
 70
     0
102
RTVSPropertyOp53
 70
     1
102
RTVSPropertyOp54
 70
     1
102
RTVSPropertyOp55
 70
     1
102
RTVSPropertyOp56
 70
     1
102
RTVSPropertyOp57
 70
     1
102
RTVSPost2010Prop28
280
     0
102
RTVSPost2010PropOp28
 70
     1
102
RTVSPost2010Prop29
280
     1
102
RTVSPost2010PropOp29
 70
     1
102
RTVSPost2010Prop30
280
     1
102
RTVSPost2010PropOp30
 70
     1
102
RTVSPost2010Prop31
280
     0
102
RTVSPost2010PropOp31
 70
     1
102
RTVSPost2010Prop32
280
     0
102
RTVSPost2010PropOp32
 70
     1
102
RTVSPost2010Prop33
280
     0
102
RTVSPost2010PropOp33
 70
     1
102
RTVSPost2010Prop34
280
     0
102
RTVSPost2010PropOp34
 70
     1
102
RTVSPost2010Prop35
280
     0
102
RTVSPost2010PropOp35
 70
     1
102
RTVSPost2010Prop36
280
     0
102
RTVSPost2010PropOp36
 70
     1
102
RTVSPost2010Prop37
 90
       50
102
RTVSPost2010PropOp37
 70
     1
102
RTVSPost2010Prop38
140
0.0
102
RTVSPost2010PropOp38
 70
     1
102
RTVSPost2010Prop39
140
1.0
102
RTVSPost2010PropOp39
 70
     1
102
RTVSPost2010Prop40
 90
        0
102
RTVSPost2010PropOp40
 70
     1
102
RTVSPost2010Prop41ColorIndex
 90
       18
102
RTVSPost2010Prop41ColorRGB
 90
        0
102
RTVSPost2010PropOp41
 70
     1
102
RTVSPost2010Prop42
 90
       50
102
RTVSPost2010PropOp42
 70
     1
102
RTVSPost2010Prop43
 90
        3
102
RTVSPost2010PropOp43
 70
     1
102
RTVSPost2010Prop44ColorIndex
 90
        5
102
RTVSPost2010Prop44ColorRGB
 90
      255
102
RTVSPost2010PropOp44
 70
     1
102
RTVSPost2010Prop45
280
     0
102
RTVSPost2010PropOp45
 70
     1
102
RTVSPost2010Prop46
 90
       50
102
RTVSPost2010PropOp46
 70
     1
102
RTVSPost2010Prop47
 90
       50
102
RTVSPost2010PropOp47
 70
     1
102
RTVSPost2010Prop48
 90
       50
102
RTVSPost2010PropOp48
 70
     1
102
RTVSPost2010Prop49
280
     0
102
RTVSPost2010PropOp49
 70
     1
102
RTVSPost2010Prop50
 90
       50
102
RTVSPost2010PropOp50
 70
     1
102
RTVSPost2010Prop51ColorIndex
 90
      256
102
RTVSPost2010Prop51ColorRGB
 90
-16777216
102
RTVSPost2010PropOp51
 70
     0
102
RTVSPost2010Prop52
140
1.0
102
RTVSPost2010PropOp52
 70
     0
102
RTVSPost2010Prop53
 90
        2
102
RTVSPost2010PropOp53
 70
     1
102
RTVSPost2010Prop54
  1
strokes_ogs.tif
102
RTVSPost2010PropOp54
 70
     1
102
RTVSPost2010Prop55
280
     0
102
RTVSPost2010PropOp55
 70
     1
102
RTVSPost2010Prop56
140
1.0
102
RTVSPost2010PropOp56
 70
     1
102
RTVSPost2010Prop57
140
1.0
102
RTVSPost2010PropOp57
 70
     1
  0
XRECORD
  5
3B5
102
{ACAD_REACTORS
330
3B4
102
}
330
3B4
100
AcDbXrecord
280
     1
102
RTVSPropertyOp0
 70
     1
102
RTVSPropertyOp1
 70
     1
102
RTVSPropertyOp2
 70
     1
102
RTVSPropertyOp3
 70
     1
102
RTVSPropertyOp4
 70
     1
102
RTVSPropertyOp5
 70
     1
102
RTVSPropertyOp6
 70
     1
102
RTVSPropertyOp7
 70
     1
102
RTVSPropertyOp8
 70
     1
102
RTVSPropertyOp9
 70
     1
102
RTVSPropertyOp10
 70
     1
102
RTVSPropertyOp11
 70
     1
102
RTVSPropertyOp12
 70
     1
102
RTVSPropertyOp13
 70
     1
102
RTVSPropertyOp14
 70
     1
102
RTVSPropertyOp15
 70
     1
102
RTVSPropertyOp16
 70
     1
102
RTVSPropertyOp17
 70
     1
102
RTVSPropertyOp18
 70
     1
102
RTVSPropertyOp19
 70
     1
102
RTVSPropertyOp20
 70
     1
102
RTVSPropertyOp21
 70
     1
102
RTVSPropertyOp22
 70
     1
102
RTVSPropertyOp23
 70
     1
102
RTVSPropertyOp24
 70
     1
102
RTVSPropertyOp25
 70
     1
102
RTVSPropertyOp26
 70
     1
102
RTVSPropertyOp27
 70
     1
102
RTVSPropertyOp28
 70
     1
102
RTVSPropertyOp29
 70
     1
102
RTVSPropertyOp30
 70
     1
102
RTVSPropertyOp31
 70
     1
102
RTVSPropertyOp32
 70
     1
102
RTVSPropertyOp33
 70
     1
102
RTVSPropertyOp34
 70
     1
102
RTVSPropertyOp35
 70
     1
102
RTVSPropertyOp36
 70
     1
102
RTVSPropertyOp37
 70
     1
102
RTVSPropertyOp38
 70
     1
102
RTVSPropertyOp39
 70
     1
102
RTVSPropertyOp40
 70
     1
102
RTVSPropertyOp41
 70
     1
102
RTVSPropertyOp42
 70
     1
102
RTVSPropertyOp43
 70
     1
102
RTVSPropertyOp44
 70
     1
102
RTVSPropertyOp45
 70
     1
102
RTVSPropertyOp46
 70
     1
102
RTVSPropertyOp47
 70
     1
102
RTVSPropertyOp48
 70
     1
102
RTVSPropertyOp49
 70
     1
102
RTVSPropertyOp50
 70
     1
102
RTVSPropertyOp51
 70
     0
102
RTVSPropertyOp52
 70
     0
102
RTVSPropertyOp53
 70
     1
102
RTVSPropertyOp54
 70
     1
102
RTVSPropertyOp55
 70
     1
102
RTVSPropertyOp56
 70
     1
102
RTVSPropertyOp57
 70
     1
102
RTVSPost2010Prop28
280
     0
102
RTVSPost2010PropOp28
 70
     1
102
RTVSPost2010Prop29
280
     1
102
RTVSPost2010PropOp29
 70
     1
102
RTVSPost2010Prop30
280
     1
102
RTVSPost2010PropOp30
 70
     1
102
RTVSPost2010Prop31
280
     0
102
RTVSPost2010PropOp31
 70
     1
102
RTVSPost2010Prop32
280
     0
102
RTVSPost2010PropOp32
 70
     1
102
RTVSPost2010Prop33
280
     0
102
RTVSPost2010PropOp33
 70
     1
102
RTVSPost2010Prop34
280
     0
102
RTVSPost2010PropOp34
 70
     1
102
RTVSPost2010Prop35
280
     0
102
RTVSPost2010PropOp35
 70
     1
102
RTVSPost2010Prop36
280
     0
102
RTVSPost2010PropOp36
 70
     1
102
RTVSPost2010Prop37
 90
       50
102
RTVSPost2010PropOp37
 70
     1
102
RTVSPost2010Prop38
140
0.0
102
RTVSPost2010PropOp38
 70
     1
102
RTVSPost2010Prop39
140
1.0
102
RTVSPost2010PropOp39
 70
     1
102
RTVSPost2010Prop40
 90
        0
102
RTVSPost2010PropOp40
 70
     1
102
RTVSPost2010Prop41ColorIndex
 90
       18
102
RTVSPost2010Prop41ColorRGB
 90
        0
102
RTVSPost2010PropOp41
 70
     1
102
RTVSPost2010Prop42
 90
       50
102
RTVSPost2010PropOp42
 70
     1
102
RTVSPost2010Prop43
 90
        3
102
RTVSPost2010PropOp43
 70
     1
102
RTVSPost2010Prop44ColorIndex
 90
        5
102
RTVSPost2010Prop44ColorRGB
 90
      255
102
RTVSPost2010PropOp44
 70
     1
102
RTVSPost2010Prop45
280
     0
102
RTVSPost2010PropOp45
 70
     1
102
RTVSPost2010Prop46
 90
       50
102
RTVSPost2010PropOp46
 70
     1
102
RTVSPost2010Prop47
 90
       50
102
RTVSPost2010PropOp47
 70
     1
102
RTVSPost2010Prop48
 90
       50
102
RTVSPost2010PropOp48
 70
     1
102
RTVSPost2010Prop49
280
     0
102
RTVSPost2010PropOp49
 70
     1
102
RTVSPost2010Prop50
 90
       50
102
RTVSPost2010PropOp50
 70
     1
102
RTVSPost2010Prop51ColorIndex
 90
      256
102
RTVSPost2010Prop51ColorRGB
 90
-16777216
102
RTVSPost2010PropOp51
 70
     0
102
RTVSPost2010Prop52
140
1.0
102
RTVSPost2010PropOp52
 70
     0
102
RTVSPost2010Prop53
 90
        2
102
RTVSPost2010PropOp53
 70
     1
102
RTVSPost2010Prop54
  1
strokes_ogs.tif
102
RTVSPost2010PropOp54
 70
     1
102
RTVSPost2010Prop55
280
     0
102
RTVSPost2010PropOp55
 70
     1
102
RTVSPost2010Prop56
140
1.0
102
RTVSPost2010PropOp56
 70
     1
102
RTVSPost2010Prop57
140
1.0
102
RTVSPost2010PropOp57
 70
     1
  0
XRECORD
  5
3B3
102
{ACAD_REACTORS
330
3B2
102
}
330
3B2
100
AcDbXrecord
280
     1
102
RTVSPropertyOp0
 70
     1
102
RTVSPropertyOp1
 70
     1
102
RTVSPropertyOp2
 70
     1
102
RTVSPropertyOp3
 70
     1
102
RTVSPropertyOp4
 70
     1
102
RTVSPropertyOp5
 70
     1
102
RTVSPropertyOp6
 70
     1
102
RTVSPropertyOp7
 70
     1
102
RTVSPropertyOp8
 70
     1
102
RTVSPropertyOp9
 70
     1
102
RTVSPropertyOp10
 70
     1
102
RTVSPropertyOp11
 70
     1
102
RTVSPropertyOp12
 70
     1
102
RTVSPropertyOp13
 70
     1
102
RTVSPropertyOp14
 70
     1
102
RTVSPropertyOp15
 70
     1
102
RTVSPropertyOp16
 70
     1
102
RTVSPropertyOp17
 70
     1
102
RTVSPropertyOp18
 70
     1
102
RTVSPropertyOp19
 70
     1
102
RTVSPropertyOp20
 70
     1
102
RTVSPropertyOp21
 70
     1
102
RTVSPropertyOp22
 70
     1
102
RTVSPropertyOp23
 70
     1
102
RTVSPropertyOp24
 70
     1
102
RTVSPropertyOp25
 70
     1
102
RTVSPropertyOp26
 70
     1
102
RTVSPropertyOp27
 70
     1
102
RTVSPropertyOp28
 70
     1
102
RTVSPropertyOp29
 70
     1
102
RTVSPropertyOp30
 70
     1
102
RTVSPropertyOp31
 70
     1
102
RTVSPropertyOp32
 70
     1
102
RTVSPropertyOp33
 70
     1
102
RTVSPropertyOp34
 70
     1
102
RTVSPropertyOp35
 70
     1
102
RTVSPropertyOp36
 70
     1
102
RTVSPropertyOp37
 70
     1
102
RTVSPropertyOp38
 70
     1
102
RTVSPropertyOp39
 70
     1
102
RTVSPropertyOp40
 70
     1
102
RTVSPropertyOp41
 70
     1
102
RTVSPropertyOp42
 70
     1
102
RTVSPropertyOp43
 70
     1
102
RTVSPropertyOp44
 70
     1
102
RTVSPropertyOp45
 70
     1
102
RTVSPropertyOp46
 70
     1
102
RTVSPropertyOp47
 70
     1
102
RTVSPropertyOp48
 70
     1
102
RTVSPropertyOp49
 70
     1
102
RTVSPropertyOp50
 70
     1
102
RTVSPropertyOp51
 70
     0
102
RTVSPropertyOp52
 70
     0
102
RTVSPropertyOp53
 70
     1
102
RTVSPropertyOp54
 70
     1
102
RTVSPropertyOp55
 70
     1
102
RTVSPropertyOp56
 70
     1
102
RTVSPropertyOp57
 70
     1
102
RTVSPost2010Prop28
280
     0
102
RTVSPost2010PropOp28
 70
     1
102
RTVSPost2010Prop29
280
     1
102
RTVSPost2010PropOp29
 70
     1
102
RTVSPost2010Prop30
280
     1
102
RTVSPost2010PropOp30
 70
     1
102
RTVSPost2010Prop31
280
     0
102
RTVSPost2010PropOp31
 70
     1
102
RTVSPost2010Prop32
280
     0
102
RTVSPost2010PropOp32
 70
     1
102
RTVSPost2010Prop33
280
     0
102
RTVSPost2010PropOp33
 70
     1
102
RTVSPost2010Prop34
280
     0
102
RTVSPost2010PropOp34
 70
     1
102
RTVSPost2010Prop35
280
     0
102
RTVSPost2010PropOp35
 70
     1
102
RTVSPost2010Prop36
280
     0
102
RTVSPost2010PropOp36
 70
     1
102
RTVSPost2010Prop37
 90
       50
102
RTVSPost2010PropOp37
 70
     1
102
RTVSPost2010Prop38
140
0.0
102
RTVSPost2010PropOp38
 70
     1
102
RTVSPost2010Prop39
140
1.0
102
RTVSPost2010PropOp39
 70
     1
102
RTVSPost2010Prop40
 90
        0
102
RTVSPost2010PropOp40
 70
     1
102
RTVSPost2010Prop41ColorIndex
 90
       18
102
RTVSPost2010Prop41ColorRGB
 90
        0
102
RTVSPost2010PropOp41
 70
     1
102
RTVSPost2010Prop42
 90
       50
102
RTVSPost2010PropOp42
 70
     1
102
RTVSPost2010Prop43
 90
        3
102
RTVSPost2010PropOp43
 70
     1
102
RTVSPost2010Prop44ColorIndex
 90
        5
102
RTVSPost2010Prop44ColorRGB
 90
      255
102
RTVSPost2010PropOp44
 70
     1
102
RTVSPost2010Prop45
280
     0
102
RTVSPost2010PropOp45
 70
     1
102
RTVSPost2010Prop46
 90
       50
102
RTVSPost2010PropOp46
 70
     1
102
RTVSPost2010Prop47
 90
       50
102
RTVSPost2010PropOp47
 70
     1
102
RTVSPost2010Prop48
 90
       50
102
RTVSPost2010PropOp48
 70
     1
102
RTVSPost2010Prop49
280
     0
102
RTVSPost2010PropOp49
 70
     1
102
RTVSPost2010Prop50
 90
       50
102
RTVSPost2010PropOp50
 70
     1
102
RTVSPost2010Prop51ColorIndex
 90
      256
102
RTVSPost2010Prop51ColorRGB
 90
-16777216
102
RTVSPost2010PropOp51
 70
     0
102
RTVSPost2010Prop52
140
1.0
102
RTVSPost2010PropOp52
 70
     0
102
RTVSPost2010Prop53
 90
        2
102
RTVSPost2010PropOp53
 70
     1
102
RTVSPost2010Prop54
  1
strokes_ogs.tif
102
RTVSPost2010PropOp54
 70
     1
102
RTVSPost2010Prop55
280
     0
102
RTVSPost2010PropOp55
 70
     1
102
RTVSPost2010Prop56
140
1.0
102
RTVSPost2010PropOp56
 70
     1
102
RTVSPost2010Prop57
140
1.0
102
RTVSPost2010PropOp57
 70
     1
  0
XRECORD
  5
3AD
102
{ACAD_REACTORS
330
3AC
102
}
330
3AC
100
AcDbXrecord
280
     1
102
RTVSPropertyOp0
 70
     1
102
RTVSPropertyOp1
 70
     1
102
RTVSPropertyOp2
 70
     1
102
RTVSPropertyOp3
 70
     1
102
RTVSPropertyOp4
 70
     1
102
RTVSPropertyOp5
 70
     1
102
RTVSPropertyOp6
 70
     1
102
RTVSPropertyOp7
 70
     1
102
RTVSPropertyOp8
 70
     1
102
RTVSPropertyOp9
 70
     1
102
RTVSPropertyOp10
 70
     1
102
RTVSPropertyOp11
 70
     1
102
RTVSPropertyOp12
 70
     1
102
RTVSPropertyOp13
 70
     1
102
RTVSPropertyOp14
 70
     1
102
RTVSPropertyOp15
 70
     1
102
RTVSPropertyOp16
 70
     1
102
RTVSPropertyOp17
 70
     1
102
RTVSPropertyOp18
 70
     1
102
RTVSPropertyOp19
 70
     1
102
RTVSPropertyOp20
 70
     1
102
RTVSPropertyOp21
 70
     1
102
RTVSPropertyOp22
 70
     1
102
RTVSPropertyOp23
 70
     1
102
RTVSPropertyOp24
 70
     1
102
RTVSPropertyOp25
 70
     1
102
RTVSPropertyOp26
 70
     1
102
RTVSPropertyOp27
 70
     1
102
RTVSPropertyOp28
 70
     1
102
RTVSPropertyOp29
 70
     1
102
RTVSPropertyOp30
 70
     1
102
RTVSPropertyOp31
 70
     1
102
RTVSPropertyOp32
 70
     1
102
RTVSPropertyOp33
 70
     1
102
RTVSPropertyOp34
 70
     1
102
RTVSPropertyOp35
 70
     1
102
RTVSPropertyOp36
 70
     1
102
RTVSPropertyOp37
 70
     1
102
RTVSPropertyOp38
 70
     1
102
RTVSPropertyOp39
 70
     1
102
RTVSPropertyOp40
 70
     1
102
RTVSPropertyOp41
 70
     1
102
RTVSPropertyOp42
 70
     1
102
RTVSPropertyOp43
 70
     1
102
RTVSPropertyOp44
 70
     1
102
RTVSPropertyOp45
 70
     1
102
RTVSPropertyOp46
 70
     1
102
RTVSPropertyOp47
 70
     1
102
RTVSPropertyOp48
 70
     1
102
RTVSPropertyOp49
 70
     1
102
RTVSPropertyOp50
 70
     1
102
RTVSPropertyOp51
 70
     0
102
RTVSPropertyOp52
 70
     0
102
RTVSPropertyOp53
 70
     1
102
RTVSPropertyOp54
 70
     1
102
RTVSPropertyOp55
 70
     1
102
RTVSPropertyOp56
 70
     1
102
RTVSPropertyOp57
 70
     1
102
RTVSPost2010Prop28
280
     0
102
RTVSPost2010PropOp28
 70
     1
102
RTVSPost2010Prop29
280
     1
102
RTVSPost2010PropOp29
 70
     1
102
RTVSPost2010Prop30
280
     1
102
RTVSPost2010PropOp30
 70
     1
102
RTVSPost2010Prop31
280
     0
102
RTVSPost2010PropOp31
 70
     1
102
RTVSPost2010Prop32
280
     0
102
RTVSPost2010PropOp32
 70
     1
102
RTVSPost2010Prop33
280
     0
102
RTVSPost2010PropOp33
 70
     1
102
RTVSPost2010Prop34
280
     0
102
RTVSPost2010PropOp34
 70
     1
102
RTVSPost2010Prop35
280
     0
102
RTVSPost2010PropOp35
 70
     1
102
RTVSPost2010Prop36
280
     0
102
RTVSPost2010PropOp36
 70
     1
102
RTVSPost2010Prop37
 90
       50
102
RTVSPost2010PropOp37
 70
     1
102
RTVSPost2010Prop38
140
0.0
102
RTVSPost2010PropOp38
 70
     1
102
RTVSPost2010Prop39
140
1.0
102
RTVSPost2010PropOp39
 70
     1
102
RTVSPost2010Prop40
 90
        0
102
RTVSPost2010PropOp40
 70
     1
102
RTVSPost2010Prop41ColorIndex
 90
       18
102
RTVSPost2010Prop41ColorRGB
 90
        0
102
RTVSPost2010PropOp41
 70
     1
102
RTVSPost2010Prop42
 90
       50
102
RTVSPost2010PropOp42
 70
     1
102
RTVSPost2010Prop43
 90
        3
102
RTVSPost2010PropOp43
 70
     1
102
RTVSPost2010Prop44ColorIndex
 90
        5
102
RTVSPost2010Prop44ColorRGB
 90
      255
102
RTVSPost2010PropOp44
 70
     1
102
RTVSPost2010Prop45
280
     0
102
RTVSPost2010PropOp45
 70
     1
102
RTVSPost2010Prop46
 90
       50
102
RTVSPost2010PropOp46
 70
     1
102
RTVSPost2010Prop47
 90
       50
102
RTVSPost2010PropOp47
 70
     1
102
RTVSPost2010Prop48
 90
       50
102
RTVSPost2010PropOp48
 70
     1
102
RTVSPost2010Prop49
280
     0
102
RTVSPost2010PropOp49
 70
     1
102
RTVSPost2010Prop50
 90
       50
102
RTVSPost2010PropOp50
 70
     1
102
RTVSPost2010Prop51ColorIndex
 90
      256
102
RTVSPost2010Prop51ColorRGB
 90
-16777216
102
RTVSPost2010PropOp51
 70
     0
102
RTVSPost2010Prop52
140
1.0
102
RTVSPost2010PropOp52
 70
     0
102
RTVSPost2010Prop53
 90
        2
102
RTVSPost2010PropOp53
 70
     1
102
RTVSPost2010Prop54
  1
strokes_ogs.tif
102
RTVSPost2010PropOp54
 70
     1
102
RTVSPost2010Prop55
280
     0
102
RTVSPost2010PropOp55
 70
     1
102
RTVSPost2010Prop56
140
1.0
102
RTVSPost2010PropOp56
 70
     1
102
RTVSPost2010Prop57
140
1.0
102
RTVSPost2010PropOp57
 70
     1
  0
XRECORD
  5
3AF
102
{ACAD_REACTORS
330
3AE
102
}
330
3AE
100
AcDbXrecord
280
     1
102
RTVSPropertyOp0
 70
     1
102
RTVSPropertyOp1
 70
     1
102
RTVSPropertyOp2
 70
     1
102
RTVSPropertyOp3
 70
     1
102
RTVSPropertyOp4
 70
     1
102
RTVSPropertyOp5
 70
     1
102
RTVSPropertyOp6
 70
     1
102
RTVSPropertyOp7
 70
     1
102
RTVSPropertyOp8
 70
     1
102
RTVSPropertyOp9
 70
     1
102
RTVSPropertyOp10
 70
     1
102
RTVSPropertyOp11
 70
     1
102
RTVSPropertyOp12
 70
     1
102
RTVSPropertyOp13
 70
     1
102
RTVSPropertyOp14
 70
     1
102
RTVSPropertyOp15
 70
     1
102
RTVSPropertyOp16
 70
     1
102
RTVSPropertyOp17
 70
     1
102
RTVSPropertyOp18
 70
     1
102
RTVSPropertyOp19
 70
     1
102
RTVSPropertyOp20
 70
     1
102
RTVSPropertyOp21
 70
     1
102
RTVSPropertyOp22
 70
     1
102
RTVSPropertyOp23
 70
     1
102
RTVSPropertyOp24
 70
     1
102
RTVSPropertyOp25
 70
     1
102
RTVSPropertyOp26
 70
     1
102
RTVSPropertyOp27
 70
     1
102
RTVSPropertyOp28
 70
     1
102
RTVSPropertyOp29
 70
     1
102
RTVSPropertyOp30
 70
     1
102
RTVSPropertyOp31
 70
     1
102
RTVSPropertyOp32
 70
     1
102
RTVSPropertyOp33
 70
     1
102
RTVSPropertyOp34
 70
     1
102
RTVSPropertyOp35
 70
     1
102
RTVSPropertyOp36
 70
     1
102
RTVSPropertyOp37
 70
     1
102
RTVSPropertyOp38
 70
     1
102
RTVSPropertyOp39
 70
     1
102
RTVSPropertyOp40
 70
     1
102
RTVSPropertyOp41
 70
     1
102
RTVSPropertyOp42
 70
     1
102
RTVSPropertyOp43
 70
     1
102
RTVSPropertyOp44
 70
     1
102
RTVSPropertyOp45
 70
     1
102
RTVSPropertyOp46
 70
     1
102
RTVSPropertyOp47
 70
     1
102
RTVSPropertyOp48
 70
     1
102
RTVSPropertyOp49
 70
     1
102
RTVSPropertyOp50
 70
     1
102
RTVSPropertyOp51
 70
     0
102
RTVSPropertyOp52
 70
     0
102
RTVSPropertyOp53
 70
     1
102
RTVSPropertyOp54
 70
     1
102
RTVSPropertyOp55
 70
     1
102
RTVSPropertyOp56
 70
     1
102
RTVSPropertyOp57
 70
     1
102
RTVSPost2010Prop28
280
     0
102
RTVSPost2010PropOp28
 70
     1
102
RTVSPost2010Prop29
280
     1
102
RTVSPost2010PropOp29
 70
     1
102
RTVSPost2010Prop30
280
     1
102
RTVSPost2010PropOp30
 70
     1
102
RTVSPost2010Prop31
280
     0
102
RTVSPost2010PropOp31
 70
     1
102
RTVSPost2010Prop32
280
     0
102
RTVSPost2010PropOp32
 70
     1
102
RTVSPost2010Prop33
280
     0
102
RTVSPost2010PropOp33
 70
     1
102
RTVSPost2010Prop34
280
     0
102
RTVSPost2010PropOp34
 70
     1
102
RTVSPost2010Prop35
280
     0
102
RTVSPost2010PropOp35
 70
     1
102
RTVSPost2010Prop36
280
     0
102
RTVSPost2010PropOp36
 70
     1
102
RTVSPost2010Prop37
 90
       50
102
RTVSPost2010PropOp37
 70
     1
102
RTVSPost2010Prop38
140
0.0
102
RTVSPost2010PropOp38
 70
     1
102
RTVSPost2010Prop39
140
1.0
102
RTVSPost2010PropOp39
 70
     1
102
RTVSPost2010Prop40
 90
        0
102
RTVSPost2010PropOp40
 70
     1
102
RTVSPost2010Prop41ColorIndex
 90
       18
102
RTVSPost2010Prop41ColorRGB
 90
        0
102
RTVSPost2010PropOp41
 70
     1
102
RTVSPost2010Prop42
 90
       50
102
RTVSPost2010PropOp42
 70
     1
102
RTVSPost2010Prop43
 90
        3
102
RTVSPost2010PropOp43
 70
     1
102
RTVSPost2010Prop44ColorIndex
 90
        5
102
RTVSPost2010Prop44ColorRGB
 90
      255
102
RTVSPost2010PropOp44
 70
     1
102
RTVSPost2010Prop45
280
     0
102
RTVSPost2010PropOp45
 70
     1
102
RTVSPost2010Prop46
 90
       50
102
RTVSPost2010PropOp46
 70
     1
102
RTVSPost2010Prop47
 90
       50
102
RTVSPost2010PropOp47
 70
     1
102
RTVSPost2010Prop48
 90
       50
102
RTVSPost2010PropOp48
 70
     1
102
RTVSPost2010Prop49
280
     0
102
RTVSPost2010PropOp49
 70
     1
102
RTVSPost2010Prop50
 90
       50
102
RTVSPost2010PropOp50
 70
     1
102
RTVSPost2010Prop51ColorIndex
 90
      256
102
RTVSPost2010Prop51ColorRGB
 90
-16777216
102
RTVSPost2010PropOp51
 70
     0
102
RTVSPost2010Prop52
140
1.0
102
RTVSPost2010PropOp52
 70
     0
102
RTVSPost2010Prop53
 90
        2
102
RTVSPost2010PropOp53
 70
     1
102
RTVSPost2010Prop54
  1
strokes_ogs.tif
102
RTVSPost2010PropOp54
 70
     1
102
RTVSPost2010Prop55
280
     0
102
RTVSPost2010PropOp55
 70
     1
102
RTVSPost2010Prop56
140
1.0
102
RTVSPost2010PropOp56
 70
     1
102
RTVSPost2010Prop57
140
1.0
102
RTVSPost2010PropOp57
 70
     1
  0
XRECORD
  5
39F
102
{ACAD_REACTORS
330
39E
102
}
330
39E
100
AcDbXrecord
280
     1
102
RTVSPropertyOp0
 70
     1
102
RTVSPropertyOp1
 70
     1
102
RTVSPropertyOp2
 70
     1
102
RTVSPropertyOp3
 70
     1
102
RTVSPropertyOp4
 70
     1
102
RTVSPropertyOp5
 70
     1
102
RTVSPropertyOp6
 70
     1
102
RTVSPropertyOp7
 70
     1
102
RTVSPropertyOp8
 70
     1
102
RTVSPropertyOp9
 70
     1
102
RTVSPropertyOp10
 70
     1
102
RTVSPropertyOp11
 70
     1
102
RTVSPropertyOp12
 70
     1
102
RTVSPropertyOp13
 70
     1
102
RTVSPropertyOp14
 70
     1
102
RTVSPropertyOp15
 70
     1
102
RTVSPropertyOp16
 70
     1
102
RTVSPropertyOp17
 70
     1
102
RTVSPropertyOp18
 70
     1
102
RTVSPropertyOp19
 70
     1
102
RTVSPropertyOp20
 70
     1
102
RTVSPropertyOp21
 70
     1
102
RTVSPropertyOp22
 70
     1
102
RTVSPropertyOp23
 70
     1
102
RTVSPropertyOp24
 70
     1
102
RTVSPropertyOp25
 70
     1
102
RTVSPropertyOp26
 70
     1
102
RTVSPropertyOp27
 70
     1
102
RTVSPropertyOp28
 70
     1
102
RTVSPropertyOp29
 70
     1
102
RTVSPropertyOp30
 70
     1
102
RTVSPropertyOp31
 70
     1
102
RTVSPropertyOp32
 70
     1
102
RTVSPropertyOp33
 70
     1
102
RTVSPropertyOp34
 70
     1
102
RTVSPropertyOp35
 70
     1
102
RTVSPropertyOp36
 70
     1
102
RTVSPropertyOp37
 70
     1
102
RTVSPropertyOp38
 70
     1
102
RTVSPropertyOp39
 70
     1
102
RTVSPropertyOp40
 70
     1
102
RTVSPropertyOp41
 70
     1
102
RTVSPropertyOp42
 70
     1
102
RTVSPropertyOp43
 70
     1
102
RTVSPropertyOp44
 70
     1
102
RTVSPropertyOp45
 70
     1
102
RTVSPropertyOp46
 70
     1
102
RTVSPropertyOp47
 70
     1
102
RTVSPropertyOp48
 70
     1
102
RTVSPropertyOp49
 70
     1
102
RTVSPropertyOp50
 70
     1
102
RTVSPropertyOp51
 70
     0
102
RTVSPropertyOp52
 70
     0
102
RTVSPropertyOp53
 70
     1
102
RTVSPropertyOp54
 70
     1
102
RTVSPropertyOp55
 70
     1
102
RTVSPropertyOp56
 70
     1
102
RTVSPropertyOp57
 70
     1
102
RTVSPost2010Prop28
280
     0
102
RTVSPost2010PropOp28
 70
     1
102
RTVSPost2010Prop29
280
     1
102
RTVSPost2010PropOp29
 70
     1
102
RTVSPost2010Prop30
280
     1
102
RTVSPost2010PropOp30
 70
     1
102
RTVSPost2010Prop31
280
     0
102
RTVSPost2010PropOp31
 70
     1
102
RTVSPost2010Prop32
280
     0
102
RTVSPost2010PropOp32
 70
     1
102
RTVSPost2010Prop33
280
     0
102
RTVSPost2010PropOp33
 70
     1
102
RTVSPost2010Prop34
280
     0
102
RTVSPost2010PropOp34
 70
     1
102
RTVSPost2010Prop35
280
     0
102
RTVSPost2010PropOp35
 70
     1
102
RTVSPost2010Prop36
280
     0
102
RTVSPost2010PropOp36
 70
     1
102
RTVSPost2010Prop37
 90
       50
102
RTVSPost2010PropOp37
 70
     1
102
RTVSPost2010Prop38
140
0.0
102
RTVSPost2010PropOp38
 70
     1
102
RTVSPost2010Prop39
140
1.0
102
RTVSPost2010PropOp39
 70
     1
102
RTVSPost2010Prop40
 90
        0
102
RTVSPost2010PropOp40
 70
     1
102
RTVSPost2010Prop41ColorIndex
 90
       18
102
RTVSPost2010Prop41ColorRGB
 90
        0
102
RTVSPost2010PropOp41
 70
     1
102
RTVSPost2010Prop42
 90
       50
102
RTVSPost2010PropOp42
 70
     1
102
RTVSPost2010Prop43
 90
        3
102
RTVSPost2010PropOp43
 70
     1
102
RTVSPost2010Prop44ColorIndex
 90
        5
102
RTVSPost2010Prop44ColorRGB
 90
      255
102
RTVSPost2010PropOp44
 70
     1
102
RTVSPost2010Prop45
280
     0
102
RTVSPost2010PropOp45
 70
     1
102
RTVSPost2010Prop46
 90
       50
102
RTVSPost2010PropOp46
 70
     1
102
RTVSPost2010Prop47
 90
       50
102
RTVSPost2010PropOp47
 70
     1
102
RTVSPost2010Prop48
 90
       50
102
RTVSPost2010PropOp48
 70
     1
102
RTVSPost2010Prop49
280
     0
102
RTVSPost2010PropOp49
 70
     1
102
RTVSPost2010Prop50
 90
       50
102
RTVSPost2010PropOp50
 70
     1
102
RTVSPost2010Prop51ColorIndex
 90
      256
102
RTVSPost2010Prop51ColorRGB
 90
-16777216
102
RTVSPost2010PropOp51
 70
     0
102
RTVSPost2010Prop52
140
1.0
102
RTVSPost2010PropOp52
 70
     0
102
RTVSPost2010Prop53
 90
        2
102
RTVSPost2010PropOp53
 70
     1
102
RTVSPost2010Prop54
  1
strokes_ogs.tif
102
RTVSPost2010PropOp54
 70
     1
102
RTVSPost2010Prop55
280
     0
102
RTVSPost2010PropOp55
 70
     1
102
RTVSPost2010Prop56
140
1.0
102
RTVSPost2010PropOp56
 70
     1
102
RTVSPost2010Prop57
140
1.0
102
RTVSPost2010PropOp57
 70
     1
  0
XRECORD
  5
391
102
{ACAD_REACTORS
330
390
102
}
330
390
100
AcDbXrecord
280
     1
102
RTVSPropertyOp0
 70
     1
102
RTVSPropertyOp1
 70
     1
102
RTVSPropertyOp2
 70
     1
102
RTVSPropertyOp3
 70
     1
102
RTVSPropertyOp4
 70
     1
102
RTVSPropertyOp5
 70
     1
102
RTVSPropertyOp6
 70
     1
102
RTVSPropertyOp7
 70
     1
102
RTVSPropertyOp8
 70
     1
102
RTVSPropertyOp9
 70
     1
102
RTVSPropertyOp10
 70
     1
102
RTVSPropertyOp11
 70
     1
102
RTVSPropertyOp12
 70
     1
102
RTVSPropertyOp13
 70
     1
102
RTVSPropertyOp14
 70
     1
102
RTVSPropertyOp15
 70
     1
102
RTVSPropertyOp16
 70
     1
102
RTVSPropertyOp17
 70
     1
102
RTVSPropertyOp18
 70
     1
102
RTVSPropertyOp19
 70
     1
102
RTVSPropertyOp20
 70
     1
102
RTVSPropertyOp21
 70
     1
102
RTVSPropertyOp22
 70
     1
102
RTVSPropertyOp23
 70
     1
102
RTVSPropertyOp24
 70
     1
102
RTVSPropertyOp25
 70
     1
102
RTVSPropertyOp26
 70
     1
102
RTVSPropertyOp27
 70
     1
102
RTVSPropertyOp28
 70
     1
102
RTVSPropertyOp29
 70
     1
102
RTVSPropertyOp30
 70
     1
102
RTVSPropertyOp31
 70
     1
102
RTVSPropertyOp32
 70
     1
102
RTVSPropertyOp33
 70
     1
102
RTVSPropertyOp34
 70
     1
102
RTVSPropertyOp35
 70
     1
102
RTVSPropertyOp36
 70
     1
102
RTVSPropertyOp37
 70
     1
102
RTVSPropertyOp38
 70
     1
102
RTVSPropertyOp39
 70
     1
102
RTVSPropertyOp40
 70
     1
102
RTVSPropertyOp41
 70
     1
102
RTVSPropertyOp42
 70
     1
102
RTVSPropertyOp43
 70
     1
102
RTVSPropertyOp44
 70
     1
102
RTVSPropertyOp45
 70
     1
102
RTVSPropertyOp46
 70
     1
102
RTVSPropertyOp47
 70
     1
102
RTVSPropertyOp48
 70
     1
102
RTVSPropertyOp49
 70
     1
102
RTVSPropertyOp50
 70
     1
102
RTVSPropertyOp51
 70
     0
102
RTVSPropertyOp52
 70
     0
102
RTVSPropertyOp53
 70
     1
102
RTVSPropertyOp54
 70
     1
102
RTVSPropertyOp55
 70
     1
102
RTVSPropertyOp56
 70
     1
102
RTVSPropertyOp57
 70
     1
102
RTVSPost2010Prop28
280
     0
102
RTVSPost2010PropOp28
 70
     1
102
RTVSPost2010Prop29
280
     1
102
RTVSPost2010PropOp29
 70
     1
102
RTVSPost2010Prop30
280
     1
102
RTVSPost2010PropOp30
 70
     1
102
RTVSPost2010Prop31
280
     0
102
RTVSPost2010PropOp31
 70
     1
102
RTVSPost2010Prop32
280
     0
102
RTVSPost2010PropOp32
 70
     1
102
RTVSPost2010Prop33
280
     0
102
RTVSPost2010PropOp33
 70
     1
102
RTVSPost2010Prop34
280
     0
102
RTVSPost2010PropOp34
 70
     1
102
RTVSPost2010Prop35
280
     0
102
RTVSPost2010PropOp35
 70
     1
102
RTVSPost2010Prop36
280
     0
102
RTVSPost2010PropOp36
 70
     1
102
RTVSPost2010Prop37
 90
       50
102
RTVSPost2010PropOp37
 70
     1
102
RTVSPost2010Prop38
140
0.0
102
RTVSPost2010PropOp38
 70
     1
102
RTVSPost2010Prop39
140
1.0
102
RTVSPost2010PropOp39
 70
     1
102
RTVSPost2010Prop40
 90
        0
102
RTVSPost2010PropOp40
 70
     1
102
RTVSPost2010Prop41ColorIndex
 90
       18
102
RTVSPost2010Prop41ColorRGB
 90
        0
102
RTVSPost2010PropOp41
 70
     1
102
RTVSPost2010Prop42
 90
       50
102
RTVSPost2010PropOp42
 70
     1
102
RTVSPost2010Prop43
 90
        3
102
RTVSPost2010PropOp43
 70
     1
102
RTVSPost2010Prop44ColorIndex
 90
        5
102
RTVSPost2010Prop44ColorRGB
 90
      255
102
RTVSPost2010PropOp44
 70
     1
102
RTVSPost2010Prop45
280
     0
102
RTVSPost2010PropOp45
 70
     1
102
RTVSPost2010Prop46
 90
       50
102
RTVSPost2010PropOp46
 70
     1
102
RTVSPost2010Prop47
 90
       50
102
RTVSPost2010PropOp47
 70
     1
102
RTVSPost2010Prop48
 90
       50
102
RTVSPost2010PropOp48
 70
     1
102
RTVSPost2010Prop49
280
     0
102
RTVSPost2010PropOp49
 70
     1
102
RTVSPost2010Prop50
 90
       50
102
RTVSPost2010PropOp50
 70
     1
102
RTVSPost2010Prop51ColorIndex
 90
      256
102
RTVSPost2010Prop51ColorRGB
 90
-16777216
102
RTVSPost2010PropOp51
 70
     0
102
RTVSPost2010Prop52
140
1.0
102
RTVSPost2010PropOp52
 70
     0
102
RTVSPost2010Prop53
 90
        2
102
RTVSPost2010PropOp53
 70
     1
102
RTVSPost2010Prop54
  1
strokes_ogs.tif
102
RTVSPost2010PropOp54
 70
     1
102
RTVSPost2010Prop55
280
     0
102
RTVSPost2010PropOp55
 70
     1
102
RTVSPost2010Prop56
140
1.0
102
RTVSPost2010PropOp56
 70
     1
102
RTVSPost2010Prop57
140
1.0
102
RTVSPost2010PropOp57
 70
     1
  0
XRECORD
  5
3B1
102
{ACAD_REACTORS
330
3B0
102
}
330
3B0
100
AcDbXrecord
280
     1
102
RTVSPropertyOp0
 70
     1
102
RTVSPropertyOp1
 70
     1
102
RTVSPropertyOp2
 70
     1
102
RTVSPropertyOp3
 70
     1
102
RTVSPropertyOp4
 70
     1
102
RTVSPropertyOp5
 70
     1
102
RTVSPropertyOp6
 70
     1
102
RTVSPropertyOp7
 70
     1
102
RTVSPropertyOp8
 70
     1
102
RTVSPropertyOp9
 70
     1
102
RTVSPropertyOp10
 70
     1
102
RTVSPropertyOp11
 70
     1
102
RTVSPropertyOp12
 70
     1
102
RTVSPropertyOp13
 70
     1
102
RTVSPropertyOp14
 70
     1
102
RTVSPropertyOp15
 70
     1
102
RTVSPropertyOp16
 70
     1
102
RTVSPropertyOp17
 70
     1
102
RTVSPropertyOp18
 70
     1
102
RTVSPropertyOp19
 70
     1
102
RTVSPropertyOp20
 70
     1
102
RTVSPropertyOp21
 70
     1
102
RTVSPropertyOp22
 70
     1
102
RTVSPropertyOp23
 70
     1
102
RTVSPropertyOp24
 70
     1
102
RTVSPropertyOp25
 70
     1
102
RTVSPropertyOp26
 70
     1
102
RTVSPropertyOp27
 70
     1
102
RTVSPropertyOp28
 70
     1
102
RTVSPropertyOp29
 70
     1
102
RTVSPropertyOp30
 70
     1
102
RTVSPropertyOp31
 70
     1
102
RTVSPropertyOp32
 70
     1
102
RTVSPropertyOp33
 70
     1
102
RTVSPropertyOp34
 70
     1
102
RTVSPropertyOp35
 70
     1
102
RTVSPropertyOp36
 70
     1
102
RTVSPropertyOp37
 70
     1
102
RTVSPropertyOp38
 70
     1
102
RTVSPropertyOp39
 70
     1
102
RTVSPropertyOp40
 70
     1
102
RTVSPropertyOp41
 70
     1
102
RTVSPropertyOp42
 70
     1
102
RTVSPropertyOp43
 70
     1
102
RTVSPropertyOp44
 70
     1
102
RTVSPropertyOp45
 70
     1
102
RTVSPropertyOp46
 70
     1
102
RTVSPropertyOp47
 70
     1
102
RTVSPropertyOp48
 70
     1
102
RTVSPropertyOp49
 70
     1
102
RTVSPropertyOp50
 70
     1
102
RTVSPropertyOp51
 70
     0
102
RTVSPropertyOp52
 70
     0
102
RTVSPropertyOp53
 70
     1
102
RTVSPropertyOp54
 70
     1
102
RTVSPropertyOp55
 70
     1
102
RTVSPropertyOp56
 70
     1
102
RTVSPropertyOp57
 70
     1
102
RTVSPost2010Prop28
280
     0
102
RTVSPost2010PropOp28
 70
     1
102
RTVSPost2010Prop29
280
     1
102
RTVSPost2010PropOp29
 70
     1
102
RTVSPost2010Prop30
280
     1
102
RTVSPost2010PropOp30
 70
     1
102
RTVSPost2010Prop31
280
     0
102
RTVSPost2010PropOp31
 70
     1
102
RTVSPost2010Prop32
280
     0
102
RTVSPost2010PropOp32
 70
     1
102
RTVSPost2010Prop33
280
     0
102
RTVSPost2010PropOp33
 70
     1
102
RTVSPost2010Prop34
280
     0
102
RTVSPost2010PropOp34
 70
     1
102
RTVSPost2010Prop35
280
     0
102
RTVSPost2010PropOp35
 70
     1
102
RTVSPost2010Prop36
280
     0
102
RTVSPost2010PropOp36
 70
     1
102
RTVSPost2010Prop37
 90
       50
102
RTVSPost2010PropOp37
 70
     1
102
RTVSPost2010Prop38
140
0.0
102
RTVSPost2010PropOp38
 70
     1
102
RTVSPost2010Prop39
140
1.0
102
RTVSPost2010PropOp39
 70
     1
102
RTVSPost2010Prop40
 90
        0
102
RTVSPost2010PropOp40
 70
     1
102
RTVSPost2010Prop41ColorIndex
 90
       18
102
RTVSPost2010Prop41ColorRGB
 90
        0
102
RTVSPost2010PropOp41
 70
     1
102
RTVSPost2010Prop42
 90
       50
102
RTVSPost2010PropOp42
 70
     1
102
RTVSPost2010Prop43
 90
        3
102
RTVSPost2010PropOp43
 70
     1
102
RTVSPost2010Prop44ColorIndex
 90
        5
102
RTVSPost2010Prop44ColorRGB
 90
      255
102
RTVSPost2010PropOp44
 70
     1
102
RTVSPost2010Prop45
280
     0
102
RTVSPost2010PropOp45
 70
     1
102
RTVSPost2010Prop46
 90
       50
102
RTVSPost2010PropOp46
 70
     1
102
RTVSPost2010Prop47
 90
       50
102
RTVSPost2010PropOp47
 70
     1
102
RTVSPost2010Prop48
 90
       50
102
RTVSPost2010PropOp48
 70
     1
102
RTVSPost2010Prop49
280
     0
102
RTVSPost2010PropOp49
 70
     1
102
RTVSPost2010Prop50
 90
       50
102
RTVSPost2010PropOp50
 70
     1
102
RTVSPost2010Prop51ColorIndex
 90
      256
102
RTVSPost2010Prop51ColorRGB
 90
-16777216
102
RTVSPost2010PropOp51
 70
     0
102
RTVSPost2010Prop52
140
1.0
102
RTVSPost2010PropOp52
 70
     0
102
RTVSPost2010Prop53
 90
        2
102
RTVSPost2010PropOp53
 70
     1
102
RTVSPost2010Prop54
  1
strokes_ogs.tif
102
RTVSPost2010PropOp54
 70
     1
102
RTVSPost2010Prop55
280
     0
102
RTVSPost2010PropOp55
 70
     1
102
RTVSPost2010Prop56
140
1.0
102
RTVSPost2010PropOp56
 70
     1
102
RTVSPost2010Prop57
140
1.0
102
RTVSPost2010PropOp57
 70
     1
  0
ENDSEC
  0
EOF
